Song name
# A B C D E F G H I J K L M N O P Q R S T U V W X Y Z

Alestorm - In The Navy tab

INTRO

e|------------------------------|  
B|------------------------------|
G|---------5--7-----------------|
D|---5--3--5--7-----------------|
A|---5--3--3--5-----------------|
E|---3--1-----------------------|

e|------------------------------|  
B|------------------------------|
G|---------5--7x-x-x------------|
D|---5--3--5--7x-x-x------------|
A|---5--3--3--5x-x-x------------|
E|---3--1-----------------------|


VERSE

e|-------------------------------------------------|
B|------------------------4------------------------|
G|-----------7----5---3---3---7--------------------|
D|--5--5--5--7----5---3---1---7--------------------|
A|--5--5--5--5----3---1-------5--------------------|
E|--3--3--3----------------------------------------|


e|-------------------------------------------------|
B|--------------------------------4x-x-------------|
G|-----------------7--x-5x-x-3x-x-3x-x-7x-x--------|
D|--5x-x-5x-x-5x-x-7--x-5x-x-3x-x-1x-x-7x-x--------|
A|--5x-x-5x-x-5x-x-5--x-3x-x-1x-x------5x-x--------|
E|--3x-x-3x-x-3x-x---------------------------------|


CHORUS

e|--------------------------------------|
B|--------------------------------------|
G|---------------------7----------------|
D|---5----7----7----5--7----------------|
A|---5----7----7----5--5----------------|
E|---3----5----5----3-------------------|

e|--------------------------------------|
B|--------------------------------------|
G|---------------------7----------------|
D|---5----7----7----5--7----------------|
A|---5----7----7----5--5----------------|
E|---3----5----5----3-------------------|


INTERLUDE

mute or: 

e|----------------------------------|  X2
B|----------------------------------|
G|----------------------------------|
D|--5x-x-x--5x-x-x--5x-x-xx-xx-x-x--|
A|--5x-x-x--5x-x-x--5x-x-xx-xx-x-x--|
E|--3x-x-x--3x-x-x--3x-x-xx-xx-x-x--|


VERSE

e|-------------------------------------------------|
B|------------------------4------------------------|
G|-----------7----5---3---3---7--------------------|
D|--5--5--5--7----5---3---1---7--------------------|
A|--5--5--5--5----3---1-------5--------------------|
E|--3--3--3----------------------------------------|


e|-------------------------------------------------|
B|--------------------------------4x-x-------------|
G|-----------------7--x-5x-x-3x-x-3x-x-7x-x--------|
D|--5x-x-5x-x-5x-x-7--x-5x-x-3x-x-1x-x-7x-x--------|
A|--5x-x-5x-x-5x-x-5--x-3x-x-1x-x------5x-x--------|
E|--3x-x-3x-x-3x-x---------------------------------|


CHORUS

e|--------------------------------------|
B|--------------------------------------|
G|---------------------7----------------|
D|---5----7----7----5--7----------------|
A|---5----7----7----5--5----------------|
E|---3----5----5----3-------------------|

e|--------------------------------------|
B|--------------------------------------|
G|---------------------7----------------|
D|---5----7----7----5--7----------------|
A|---5----7----7----5--5----------------|
E|---3----5----5----3-------------------|


INTERLUDE

mute or: 

e|----------------------------------|  X4
B|----------------------------------|
G|----------------------------------|
D|--5x-x-x--5x-x-x--5x-x-xx-xx-x-x--|
A|--5x-x-x--5x-x-x--5x-x-xx-xx-x-x--|
E|--3x-x-x--3x-x-x--3x-x-xx-xx-x-x--|


CHORUS

e|--------------------------------------|
B|--------------------------------------|
G|---------------------7----------------|
D|---5----7----7----5--7----------------|
A|---5----7----7----5--5----------------|
E|---3----5----5----3-------------------|

e|--------------------------------------|
B|--------------------------------------|
G|---------------------7----------------|
D|---5----7----7----5--7----------------|
A|---5----7----7----5--5----------------|
E|---3----5----5----3-------------------|


OUTRO

mute or: 

e|----------------------------------|  X1
B|----------------------------------|
G|----------------------------------|
D|--5x-x-x--5x-x-x--5x-x-xx-xx-x-x--|
A|--5x-x-x--5x-x-x--5x-x-xx-xx-x-x--|
E|--3x-x-x--3x-x-x--3x-x-xx-xx-x-x--|


Compatible with this version:
http://www.youtube.com/watch?v=fMwKDk4mW3c
Tap to rate this tab
# A B C D E F G H I J K L M N O P Q R S T U V W X Y Z