Song name
# A B C D E F G H I J K L M N O P Q R S T U V W X Y Z

Alex Calder - Light Leave Your Eyes tab

-------------------------------------------------------------------------------
                             Light Leave Your Eyes - Alex Calder
-------------------------------------------------------------------------------
Tabbed by: Sam Sotelo
E-mail: toucansam92@gmail.com

http://capturedtracks.com/artists/alex-calder/

Tuning: Standard

e|--------------------------------------------------------------------|
B|---------7----------7-----------7-9-\-5-----------------------------|
G|-------9----------9----------9--------------------------------------|  x4
D|---9-9--------9-9--------9-9----------------------------------------|
A|--------------------------------------------------------------------|
E|--------------------------------------------------------------------|



e|--------------------------------------------------------------------|
B|---7-5-7---7-5-7---7-5-7-/-12-12-12-12-12-12-9-9-5-5-5-5-5-5-5-5----|
G|---------8-------8--------------------------------------------------|
D|--------------------------------------------------------------------|
A|--------------------------------------------------------------------|
E|--------------------------------------------------------------------|\
                                                                        }x2
e|--------------------------------------------------------------------|/
B|---5-4-5---5-4-5---5-4-5-/-12-12-12-12-12-12-9-9-5-5-5-5-5-5-5-5----|
G|---------6-------6--------------------------------------------------|
D|--------------------------------------------------------------------|
A|--------------------------------------------------------------------|
E|--------------------------------------------------------------------|



e|--------------------------------------------------------------------|
B|---------7----------7-----------7-9-\-5-----------------------------|
G|-------9----------9----------9--------------------------------------|  x8
D|---9-9--------9-9--------9-9----------------------------------------|
A|--------------------------------------------------------------------|
E|--------------------------------------------------------------------|



e|--------------------------------------------------------------------|
B|---7-5-7---7-5-7---7-5-7-/-12-12-12-12-12-12-9-9-5-5-5-5-5-5-5-5----|
G|---------8-------8--------------------------------------------------|
D|--------------------------------------------------------------------|
A|--------------------------------------------------------------------|
E|--------------------------------------------------------------------|\
                                                                        }x4
e|--------------------------------------------------------------------|/
B|---5-4-5---5-4-5---5-4-5-/-12-12-12-12-12-12-9-9-5-5-5-5-5-5-5-5----|
G|---------6-------6--------------------------------------------------|
D|--------------------------------------------------------------------|
A|--------------------------------------------------------------------|
E|--------------------------------------------------------------------|

END


************************************

| /   slide up
| \   slide down
| h   hammer-on
| p   pull-off
| ~   vibrato
| +   harmonic
| x   Mute note
| b   Bend
| pb  Pre-bend
| br  Bend release
| pbr Pre-bend release
| brb Bend release bend

************************************
Tap to rate this tab
# A B C D E F G H I J K L M N O P Q R S T U V W X Y Z