Song name
# A B C D E F G H I J K L M N O P Q R S T U V W X Y Z

Alex Campos - Me Robaste El Corazon tab

Original Tone:  C

INTRO
P= PULL-OF(JALAR CUERDA)
        C                 G                     Am
e-----------0---  -------------1P0----  -----------3P0-------|
B--1-----1------  ----------3------3---  --------1------1----|
G-----0---------  -------0-------------  -----2--------------|
D---------------  ---------------------  --------------------|
A--3------------  ---------------------  --0-----------------|
E---------------  ---3-----------------  --------------------|

         G                   C                G
e----------0---------  -----------0----  -----------1P0---------|
B-------3-----3------  --1-----1-------  --------3---------3----|
G----0-----------0----  -----0----------  -----0----------------|
D--------------------  ----------------  -----------------------|
A--------------------  --3-------------  -----------------------|
E-3------------------  ----------------  --3--------------------|
       Am                            G
e-----------3P0-----  -----------------------------------------|
B--------1--------1--  ------0---1---1---3---3---3-------------|
G-----2--------------  ----0---0---0---0---0---0---------------|
D--------------------  ----------------------------------------|
A--0-----------------  ----------------------------------------|
E--------------------  -3--------------------------------------|

ARPEGIO EN LAS ESTROFAS

Aqui comienza a toca el arpegio primero y despues entra la VOZ

   C                              G
          //ME ROBASTE EL CORA     ZON
e----------La voz comienza aqui-  --------------------0------|
B---1---1-------1-----1---------   --3----3----3----3--------|
G-----0---0---------0-----0----  ------0----0----0-----------|
D------------------------------  ----------------------------|
A---3--------------------------  ----------------------------|
E------------------------------  ---3------------------------|
  Am                                G
            TE ADUEÑASTE DE MI      VIDA
e-----------------------------  -----------------------------|
B---1----1----1-------1-------   --0-----0---1-----3---------|
G------0---0-------0------0----  ------0---0----0-----0------|
D------------------------------  ----------------------------|
A---0--------------------------  ----------------------------|
E------------------------------  ---3------------------------|
(Sigue usando el mismo arpegio)
  C                      G   Am
  DE TUS LABIOS BROTAN MIEL
                          G
  Y TU DULCE VOZ ME ARRUYA//

El arpegio para los coros es muy sencillo es:(p i m i a i m i)BIS
Este arpegio es para canciones de 4 tiempos

CORO I
    C                     G
  //ES HERMOSO ESTAR DORMIDO

  Dm              Am        C
  CON EL CORAZON DESPIERTO
                     G
  ES TAN AGRADABLE VERTE
         Dm         Am
  Y TAN DULCE ESCUCHAR//


CORO II
  C        G
  TU SOLO TU
  Dm               Am
  ESPERANZA AMADO MIO
  C                G
  ESTAS EN LOS COLORES
          Dm            Am
  DE LAS ROSAS QUE FLORECEN
   C                 G
  ESTAS EN MIS CANCIONES
         Dm          Am
  EN EL VIENTO Y EL MAR


----------------------INTRO-------------------

  //ME ROBASTE EL CORAZON
  AUNQUE YO QUEDE EN EL OLVIDO
  Y ME GUSTA ESTAR ASÍ
  CON EL CORAZÓN ENAMORADO DE TI//


CORO I

CORO II

LA CANCIÓN TERNINA ASÍ:
Aqui entra el intro que esta al principio de la cancion.(Ver INTRO)

   UHHH,      UHHH,      UHHH.
    G       C          G/B
e-------------------------------------------------------|
B--0---0----1---1-----3---3---3---3---------------------|
G----0---0----0---0-----0---0---0-----------------------|
D-------------------------------------------------------|
A-----------3---------2---------------------------------|
E--3----------------------------------------------------|

      G      C
     EHH,   EHH= (RASGUEO)
 e----3------0------|
 B----3------1------|
 G----0------0------|
 D----0------2------|
 A----2------3------|
 E----3-------------|

REVISADO Y ARREGLADO POR
Alex.Gomez@cox.net 06/22/2010
Tap to rate this tab
 
# A B C D E F G H I J K L M N O P Q R S T U V W X Y Z