Song name
# A B C D E F G H I J K L M N O P Q R S T U V W X Y Z

Alex Campos - Como El Color De La Sangre tab

All of the Chords in this tab are  shown as if you were to play them on the first
fret. I tabbed them with a capo on the 3rd

Todos los acordes de esta tabletura se muestran como si fueses a tocarlos en el
primer traste.Use un capo en el tercer traste

Capo 3rd
Intro: Am   C   G   D (x2)

e -----------------|--------------|---------------|--------------|
B --4s6-4-3--------|-4s6-4-3---3--|---------------|--------------|
G ----------3s5-3--|---------3----|--3-5-5s7-5----|--3s5-3-------|
D -----------------|--------------|---------------|--------3s5-3-|
A -----------------|--------------|---------------|--------------|
E -----------------|--------------|---------------|--------------|


G                             Em
  Si acaso ya no vuelves tal vez
C                 Em          C
  Recuerda lo que te dije ayer
G                        Em
  Tus ojos yo nunca olvidare
C               Em        D
  Cuando de niño yo te forme
Cm                        Cm   C
  Cuando a la luna yo te lle --ve
Em                           D
  Y en la tormenta yo te cuide.

Coro
Em                      C                   G
  Aunque lejos te hayas ido, y se apague tu amor
                      D                     Em
Mi amor siempre incansable, luchara a tu favor
                    C                            G
Y si niegas mi existencia o lo que yo siento por vos
                    D                          Em
El lucero de este cielo te dirá que aquí estoy yo
                      C                      G
Te dirá que soy tan cierto como lo es tu corazón
                     D
Como el color de la sangre.

G                            Em
  Si acaso ya no vuelves tal vez
C                 Em             D   E -5h6-5---------|
  Te olvides que siempre yo te ame   B -------6-------|
G                          Em        G ---------5h7-5-|
  Mi vida yo por ti entregue
C               Em          D        B ------------------|
  Fue por este amor que calle.       G -5s7-5------------|
Am                      Cm/G   C       D -------5-3------|
  El reino de mi padre de -- je
Em                             D
  Y en busca de tu amor yo zarpe.

F              Em             G          D
  No hay que temer,    te cuidare, ahí estaré
F             Em            D
  Vuélvete a mí,    te esperare…

Solo

  e -11s13-11-10--------------------------------------------------|
  B -------------11---11-13-13s15-15-11-13-13s15-13---13-15-13-11-|
  G --------------------------------------------------------------|


  E -11s13-11-10-----------------------------------|
  B -------------11---11-13-13s15-13---------------|
  G -----------------------------------------------|


Coro (Change in key)
F#m                      D                     A
  Aunque lejos te hayas ido, y se apague tu amor
                     E                   F#m
Mi amor siempre incansable, luchara a tu favor
                    D                             A
Y si niegas mi existencia o lo que yo siento por vos
                   E                         F#m
El lucero de este cielo te dirá que aquí estoy yo
                      D                       A
Te dirá que soy tan cierto como lo es tu corazón
                     E                        F#m
Como el color de la sangre que por ti se derramo.
                       A#                       A
Como el amor de aquel padre que a su hijo entrego
                    E                          F#m
Como lo es esta canción, que en silencio canto yo.



e -----------------|--------------|---------------|
B --6s8-6-5--------|-6s8-6-5---5--|---------------|
G ----------5s7-5--|---------5----|--5-7-7s9-7----|
D -----------------|--------------|---------------|
A -----------------|--------------|---------------|
E -----------------|--------------|---------------|
Tap to rate this tab
# A B C D E F G H I J K L M N O P Q R S T U V W X Y Z