Song name
# A B C D E F G H I J K L M N O P Q R S T U V W X Y Z

Alex Chilton - In The Street tab

Artist: Alex Chilton
Song: In The Street
Album: Live In Anders

Tabbed by: Beckett W.
Email: beckett360@yahoo.com

Main Riff
e|----------------------|
B|------------------5---|
G|---------------5--5-5-|
D|---------------5--3-5-|
A|-------5-6-7---3----3-|
E|-5-6-7----------------|

e|----------------------|
B|------------------5---|
G|---------------5--5-5-|
D|---------------5--3-5-|
A|-------5-6-7---3----3-|
E|-5-6-7----------------|

Alternate Riff
e|----------------------|
B|------------------5---|
G|---------------5--5-5-|
D|-------0-1-2---5--5-5-|
A|-0-1-2---------5----5-|
E|----------------------|

Verse
e|----------------------|
B|------------------5---|
G|----------------5-5-5-|
D|----------------5-3-5-|
A|-0-1-2-3-2-1-0--3---3-|
E|----------------------|

Outro
e|----------------------|
B|----------------------|
G|---------------5------|
D|---------------5------|
A|-------5-6-7---3------|
E|-5-6-7----------------|

Alex Chilton Bios:
http://en.wikipedia.org/wiki/Alex_Chilton
http://www.furious.com/perfect/alexchilton.html
http://www.boxtops.com/

Alex Chilton Music MySpace:
http://www.myspace.com/lxchilton
Tap to rate this tab
# A B C D E F G H I J K L M N O P Q R S T U V W X Y Z