Song name
# A B C D E F G H I J K L M N O P Q R S T U V W X Y Z

Alex Clare - Too Close tab

-------------------------------------------------------------------------------
                             Too Close - Alex Clare
-------------------------------------------------------------------------------
Tabbed by:
Email:

Tuning:Standard
  Bm                D                Em               G         F#m
   v  ^  x          v  ^  x          v  ^  x          V  ^  x   V  ^  x
e|-2--2--x2---------3--3--x3--3-2----3--3--x3---------3--3--x3--2--2--x2-----|
B|-3--3--x3--3------3--3--x3------3--3--3--x3--3------3--3--x3--2--2--x2-----|
G|-4--4--x4----4----2--2--x2---------0--0--x0----0----0--0--x0--3--3--x3-----|
D|-4--4--x4------4--0--0--x0---------2--2--x2------2--0--0--x0--4--4--x4-----|
A|-2--2--x2---------x--x---x---------2--2--x2---------2--2--x2--4--4--x4-----|
E|-2--2--x2---------x--x---x---------x--x---x---------3--3--x3--2--2--x2-----|


  Bm                D                Em               G         F#m
   v  ^  x          v  ^  x          v  ^  x          V  ^  x   V  ^  x
e|-2--2--x2---------3--3--x3--3-2----3--3--x3---------3--3--x3--2--2--x2---::|
B|-3--3--x3--3------3--3--x3------3--3--3--x3--3------3--3--x3--2--2--x2---::|
G|-4--4--x4----4----2--2--x2---------0--0--x0----0----0--0--x0--3--3--x3---::|
D|-4--4--x4------4--0--0--x0---------2--2--x2------2--0--0--x0--4--4--x4---::|
A|-2--2--x2---------x--x---x---------2--2--x2---------2--2--x2--4--4--x4---::|
E|-2--2--x2---------x--x---x---------x--x---x---------3--3--x3--2--2--x2---::|

Tap to rate this tab
 
# A B C D E F G H I J K L M N O P Q R S T U V W X Y Z