Song name
# A B C D E F G H I J K L M N O P Q R S T U V W X Y Z

Alex Clare - Too Close tab

Creator- Matthew Finn

Listen to the song for rhythm and timing,
It should be farily accurate :)


Verse
[------------------------------------------------------------]
[-------------------7---7------------------------------------]
[-----7---7---------7---7---------4---4------4---------3-----]
[-----9---9---------7---7---------5---5------5---------4-----]
[-----9---9------5----------------5---5------5---------4-----]
[-7----------------------------3----------3-------3-2--------]


Chorus
[------------------------------------------------]
[---------------------------7--7--7--7--7--------]
[-----7--7--7--7--7---------7--7--7--7--7--------]
[-----9--9--9--9--9---------7--7--7--7--7--------]
[-----9--9--9--9--9---------5--5--5--5--5--------]
[-----7--7--7--7--7------------------------------]

[-------------------------------------------------------]
[-------------------------------------------------------]
[-----4--4--4--4--4---------4--4--4--3--3---------------]
[-----5--5--5--5--5---------5--5--5--4--4---------------]
[-----5--5--5--5--5---------5--5--5--4--4---------------]
[-----3--3--3--3--3---------3--3--3--2--2---------------]

Repeat where necessary etc,

Matt
Tap to rate this tab
 
# A B C D E F G H I J K L M N O P Q R S T U V W X Y Z