Song name
# A B C D E F G H I J K L M N O P Q R S T U V W X Y Z

Alex Clare - Too Close Acoustic tab

-----------------------------------------------------------------------------
                             Too Close (acoustic)- Alex Close
-----------------------------------------------------------------------------

Tuning: Standard

This tab is based on this performance: http://www.youtube.com/watch?v=OuvdzBt64RQ

Intro
  Bm          D                   Em                G         F#
E[-----------|-----------3-2-----|----------------|---------|----------]
B[---3-------|---------3-----3---|----------------|---------|----------]
G[-----4-----|-------2---------3-|-----0----------|---0-----|---3------] x2
D[-------2h4-|-0--0--------------|-------2--------|------0--|---4------]
A[-2---------|-------------------|---------0h2----|---------|---4------]
E[-----------|-------------------|--0-----------0-|3--------|-2--------]

Verse/chorus

  Bm          D              Em            G        F#
E[-----------|---2-----2---|-------------|---------|-------]
B[--3----3---|---3-----3---|-------------|---------|-------]
G[--4----4---|---2-----2---|---0-----0---|---0-----|---3---] repeat for 
D[--4----4---|-0---0-0---0-|---2-----2---|---0-----|---4---] duration of
A[-2--2-2--2-|-------------|---2-----2---|---2-----|---4---] song
E[-----------|-------------|-0---0-0---0-|-3---3---|-2---2-]

I made this tab as no one had covered the intro in the other tabs. Constructive 
criticism on the tab is welcome.
Tap to rate this tab
# A B C D E F G H I J K L M N O P Q R S T U V W X Y Z