Song name
# A B C D E F G H I J K L M N O P Q R S T U V W X Y Z

Alex Clare - Too Close Acoustic tab

If you like this tab please check out my video lessons. Simply google LifenTune.

e|----------------------3p2-----------------------------------|
B|----3---------------3-----3----0--------------------------0-|
G|------4-----------2---------2--0-----0-0-----0-----0------0-|
D|--------2h4--0-0---------------0----------------------------|
A|--2--------------------------------------0h2----------------|
E|-----------------------------------0-----------0h3--3-0-2---|

e|----------------------3p2-----------------------------------|
B|----3---------------3-----3----0--------------------------0-|
G|------4-----------2---------2--0-----0-0-----0-----0------0-|
D|--------2h4--0-0---------------0--------------------0-------|
A|--2--------------------------------------0h2----------------|
E|-----------------------------------0-----------0h3----0-2---|

e|-------------------2-----2-----------------------------|
B|---3-T-----3-T-----3-T---3-T----0-T----0-T-----3-T---2-|
G|---4-A-----4-A-------A-----A----0-A----0-A-----0-A---3-|
D|-----P-------P-0-0---P-0---P------P------P-------P-----|
A|-2-----2-2---------------------------------------------|
E|-----------------------------0-0----0-0----0-3-----2---|

e|------------------2------2-------------------------------|
B|----3-T-----3-T---3-T----3-T----0-T----0-T-----3-T-----2-|
G|----4-A-----4-A-----A------A----0-A----0-A-----0-A-----3-|
D|------P-------P-0---P-0-0--P------P------P-------P-------|
A|-2-2----2-2----------------------------------------------|
E|-----------------------------0-0----0-0----0-3-----0-2---|
Tap to rate this tab
# A B C D E F G H I J K L M N O P Q R S T U V W X Y Z