Song name
# A B C D E F G H I J K L M N O P Q R S T U V W X Y Z

Alex Clare - Too Close Acoustic tab

Hey Guys!
This is my first tab so it could be that something is wrong.

h= hammer on

Intro:
E|----0--------------------------------------------0------------------------|
B|----0------------------------------1--0----------1------------------------|
G|----0---------------0---------------------0------2---------2----------0---|
D|----2---------2-----0----------0-----------------2----0-h2---0------2-----|
A|----2---0-h2----0---2------2------------------0------------------3------3-|
E|-0------------------3---3-------------------------------------------------|


E|----------------------------------------------------------------|
B|---------0------------------------------------------------------|
G|---------3------------------------------------------------------|
D|-----3----------------------------------------------------------|            
A|--2-------------------------------------------------------------|
E|----------------------------------------------------------------|

There are the same chords in the whole song! E    G    am    C  B
Tap to rate this tab
 
# A B C D E F G H I J K L M N O P Q R S T U V W X Y Z