Alex Day - Sonic Doesnt Need A Story tab

Here is the acoustic version of Sonic Doesn't Need a Story (v. 1.0). As of now, I have 
it about 50% done. Keep in mind this is an electronic song, and it's very difficult. But 
I encourage you to try it!!
key: G = Guitar


Intro:
G1 (G2 may harmonize how they see fit)

e-:7---7---6---6---4---4---2---2---12---12---11---11---9---9---7---7---| (2x)
B-:--------------------------------------------------------------------|
G-:--------------------------------------------------------------------|
D-:--------------------------------------------------------------------|
A-:--------------------------------------------------------------------|
E-:--------------------------------------------------------------------|

e-:7---7---6---6---4---4---2---2---12---12---11---9---9---9---7---7----|
B-:--------------------------------------------------------------------|
G-:--------------------------------------------------------------------|
D-:--------------------------------------------------------------------|
A-:--------------------------------------------------------------------|
E-:--------------------------------------------------------------------|

e-:7---7---6---6---4---4---3---3---12---12---11---11---9---9-----------|
B-:--------------------------------------------------------------------|
G-:--------------------------------------------------------------------|
D-:--------------------------------------------------------------------|
A-:--------------------------------------------------------------------|
E-:--------------------------------------------------------------------|

Verse 1 (but now you're everything...):
G2 (G1 rests till cued)

e-:0-4-8-4-10-8-7-8----------------------------------------------------| (x3)
B-:-----------------0-4-8-4-10-8-7-8-2-5-9-5-10-9-7-9------------------|
G-:---------------------------------------------------2-6-9-6-11-9-8-9-|
D-:--------------------------------------------------------------------|
A-:--------------------------------------------------------------------|
E-:--------------------------------------------------------------------|

e-:0-4-8-4-10-8-7-8----------------------------------|
B-:----------------0-4-8-4-10-8-7-8-2-5-9-5-10-9-7-9-|
G-:--------------------------------------------------|
D-:--------------------------------------------------|
A-:--------------------------------------------------|
E-:--------------------------------------------------|

e-:2-6-9-13-2-6-9-13-2-6-9-13(cue)-2-6-9-13-2-6-9-12-2-6-9-13-|
B-:-----------------------------------------------------------|
G-:-----------------------------------------------------------|
D-:-----------------------------------------------------------|
A-:-----------------------------------------------------------|
E-:-----------------------------------------------------------|

G1 Cue:
e-:12-11-9-7-6-4-2-----|
B-:--------------------|
G-:----------------3-4-|
D-:--------------------|
A-:--------------------|
E-:--------------------|

Chorus:
G1:

e-:----2-7-7-9-7-2-6-9-14-16-14-13-14-------------------------------------|
B-:0-4--------------------------------12-9-7-4-5-4-2-0-2-4-5-7-9-11-12-14-|
G-:-----------------------------------------------------------------------|
D-:-----------------------------------------------------------------------|
A-:-----------------------------------------------------------------------|
E-:-----------------------------------------------------------------------|
Tap to rate this tab
 
# A B C D E F G H I J K L M N O P Q R S T U V W X Y Z