Song name
# A B C D E F G H I J K L M N O P Q R S T U V W X Y Z

Alex Day - Holding On chords

Highlighted       Show chord diagrams
Capo 4

Intro-

|--------------------------------------|
|-----------0h1-------1----------------|
|---------0-----0-----0----------------|(x2)
|-----0h2---------2--------------------|
|---3----------------------------------|
|--------------------------------------|

C                                                     Am
A million and one thousand things are screaming in my head
                     Em                                C
And I can't seem to forget, can't stop thinking about you
                                                   Am
I could ride across the sky in a bicycle built for two
                           Em                                     F
Could you teach me how to ride, like you taught me how to feel alive?

F          C              Em              Am
And not a single day goes by when I don't wish for you
   F                  C                 Em
To watch me pause to find the words to steal your heart away
F                   C          Em                Am
But I'll play every word back round and round to try and find
  F                    C             Em
A clue you might have left behind to say you feel the same

        C   G6     Em Am
'Cause even if I know
      C    G6        Em Am
I'll never be your Leo
     C    Em      C
I'll keep holding on

|--------------------------------------|
|-----------0h1-------1----------------|
|---------0-----0-----0----------------|(x2)
|-----0h2---------2--------------------|
|---3----------------------------------|
|--------------------------------------|

C                                                       Am
A hundred and three thousand ghosts are laughing in my dreams
                    Em                              C
My eyes are failing me, everywhere I look I see you
                                                           Am
I could bake a chocolate cake for you with tiers up to the moon
                           Em                                       
Could you show me how it's done, like you showed me how to fall in love?

F            C              Em              Am 
You'll never see that I'm the one who never left you
          F            C               Em
When you needed me to cry to 'cause your heart got broke again
F        C              Em            Am 
So I'll play until the strings on my guitar give out,
     F              C                Em
And I'll be aching from the pain of trying to pretend

C   G6       Em Am
Even if I know
      C    G6        Em Am
I'll never be your Leo
     C    Em      C
I'll keep holding on

Instrumental- 

F C Em Am
F C Em
F C Em Am
F C Em

C   G6       Em Am
Even if I know
      C    G6        Em Am
I'll never be your Leo
     C    Em      C
I'll keep holding on

Ending- 

|--------------------------------------|
|-----------0h2-------2----------------|
|---------0-----0-----0----------------|(x2)
|-----0h2---------2--------------------|
|---3----------------------------------|
|--------------------------------------|

Alright guys, enjoy. I'm currently working on tabbing the solo part in the 
instrumental, so expect that to be completed in the near future.
Tap to rate this tab
 
# A B C D E F G H I J K L M N O P Q R S T U V W X Y Z