Song name
# A B C D E F G H I J K L M N O P Q R S T U V W X Y Z

Alex De Grassi - The Water Garden tab

TABBED BY  :-)TABNUT
HI,THERE

IF YOU NEVER HEARD HIS MUSIC GO OUT FIND THE ALBUM AND THOSE WHO HEARD IT HERE'S
THE FULL TAB SO ENJOY.

(MAIL ME AND RATE THE TAB OR ANY COMMENT{tabnut@mail.com})

Hey The simpsons coming soon!!

TUNNING:
--------
D
A
G
C
G
C

X  = PERCUSSIVE MUTE
<> = HARMONICS
*  = STRUM
/  = SLIDE

-*5---------------------- -----------3---2---0------ -----------------------|
-*5---------------------- -----------3-----------3-- --5/7------------------|
-*0---------------------- -----------0-------------- -------------5-------0-|
-*4---------------------- -------------------------- ---------------------4-|
-*0---------------------- -------------------------- ---------------------0-|
-*0-----x----0----x----0- --x--0-------------------- --5----x--5------x---0-|


                NH  NH                       NH NH                 NH NH
 ------------------<7>--- -------------------------- ----------------------|
 ---------------<7>------ ---------------------<7>-- ----------------------|
 ------------------------ ------------------<7>----- --------------<7>-----|
 ------------------------ -------------------------- -----------------<5>--|
 ------------------------ -------------------------- ----------------------|
 --x--0------------------ --0--x----0--------------- --0--x---0------------|

 ------------------------ -*5----------------------- --------3--2---0-------|
 ------------------------ -*5----------------------- --------3---------3----|
 ------------------------ -*4----------------------- --------0--------------|
 ------------------------ -*4----------------------- -----------------------|
 ------------------------ -*0----------------------- -----------------------|
 ---0--x--0--------X--0-- -*0----X---0------x---0--- --x--0-----------------|

 --------------0--------- -------------------------- -----------------------|
 ---5/7------------------ -------------------------- -----------------------|
 ----------------5------- --0----------------------- -------------0---------|
 ------------------------ --0----------------------- -----------------------|
 ------------------------ --0----------------------- ---------7-------------|
 ---5----x--5------x--5-- -----x--0---------x--0---- ---x--0---------x--0---|

 ------------------------ -------------------------- -----------------------|
 ------------------------ -------------------------- -----------------------|
 ------------------------ -------------------------- -----------------------|
 ------------------------ -------------0------------ -----------------------|
 --4--------------------- ---------7---------------- --0--------------------|
 -----x--0-------x--0---- ---x--0----------x---0---- ----x--0---------x--0--|

 ------------------------ -------------------------- -----------------------|
 ------------------------ -------------------------- -----------------------|
 ------------------------ -------------------------- -----------------------|
 -------5--4--------0---- ----4-----------0--------- ---------5--4------0---|
 --------------7--------- --7----------7--------0--- ---------------7-------|
 --x--0------------------ --5----x--5--------x------ --0--x--0--------------|

 ------------------------ *0----------5/7--------0-- -*---------5/7-------0-|
 ------------------------ *3------------------7----- -*3----------------7---|
 ----------------------0- *0--------0-------0------- -*0--------------0-----|
 ----4---------0--------- *0------------------------ -*4-------0------------|
 --7---------7----------- *2------------------------ -*5--------------------|
 --5----x--5------x----0- *----0---2------5--------- -*0--0--2------5-------|


                                     AH14  AH14
 -*-----------5/7-------0 -*0------------------------ -----5/7-------0--------|
 -*3------------------7-- -*0----------------------- --------------7----------|
 -*0---------0------0---- -*0----------------------- ----0-------0------------|
 -*4--------------------- -*2------------<2>-------- -------------------------|
 -*5--------------------- -*2--------<2>------------ -------------------------|
 -*5---5---2------5------ -*2----------------------- --2-------5--------------|

 -*5--------------------- ----------2--0------0----- ---2--0-------0---2----|
 -*5--------------------- ----------3------3-------- ---3-------3------0----|
 -*0--------------------- ----------0--------------- ---0-------0------5----|
 -*4--------------------- -------------------------- ------------------4----|
 -*0--------------------- -------------------------- ------------------0----|
 -*0---x--0------x---0--- ---x---0------------------ ---2-------5------0----|
Tap to rate this tab
# A B C D E F G H I J K L M N O P Q R S T U V W X Y Z