Song name
# A B C D E F G H I J K L M N O P Q R S T U V W X Y Z

Alex G - Find You tab

TITLE: FIND YOU
SINGER: ALEX G.
TABBED/INTERPRETED BY: Rany Otadoy
SONG DEDICATED TO: MICHELLE MARATAS ^_^

TUNING: STANDARD EADGBE
CAPO ON 3rd FRET

INTRO:
           G        D/F#        E               G           D/F#     E
e ||--------------|------|------------------|--------------|------|--------|
B ||-----3---3--3-|----3-|----3---3---3---3-|-----3---3--3-|----3-|----3--3|
G ||----0---0--0--1---0--|---0---0---0---0--|----0---0--0--1---0--|---0--0-|
D ||---0---0--0---|--0---|--0---0---0---0---|---0---0--0---|--0---|--0--0--|
A ||--------------|------|------------------|--------------|------|--------|
E ||-3------------|-2----|-0----------------|-3------------|-2----|-0------|

VERSE 1 and 2 
repeat this 8x)G    D/F#        E               C            D/F#    G
e ||--------------|------|------------------|--------------|------|--------|
B ||-----3---3--3-|----3-|----3---3---3---3-|-----3---3--3-|----3-|----3--3|
G ||----0---0--0--1---0--|---0---0---0---0--|----0---0--0--1---0--|---0--0-|
D ||---0---0--0---|--0---|--0---0---0---0---|---0---0--0---|--0---|--0--0--|
A ||--------------|------|------------------|--3-----------|------|--------|
E ||-3------------|-2----|-0----------------|--------------|-2----|-3------|
I feel your hand close to mine
And your smile is easy to find
So I'll hide this fear
That you're not really here

And I will laugh with you
Kiss your cheek like you still want me to
And though you're near, I know
That you're not really here
Chorus
      C          C/G         C         G (repeat this 4x)        
e ||----------|---------|----------|-----------|
B ||-----3--3-|----3--3-|----3---3-|-----3---3-|
G ||----0--0--1---0--0--|---0---0--|----0---0--1
D ||---0--0---|--0--0---|--0---0---|---0---0---|
A ||--3-------|-2-------|-3--------|-----------|
E ||----------|---------|----------|-3---------|
So I'll wait for a sign that says it's not too late
And I'll try to save the love that once was mine
And I'll find, I'll find your broken light that used to shine
And I'll find, I'll find you
REPEAT INTRO
VERSE 3
repeat this 8x) G    D/F#       E               C            D/F#    G
e ||--------------|------|------------------|--------------|------|--------|
B ||-----3---3--3-|----3-|----3---3---3---3-|-----3---3--3-|----3-|----3--3|
G ||----0---0--0--1---0--|---0---0---0---0--|----0---0--0--1---0--|---0--0-|
D ||---0---0--0---|--0---|--0---0---0---0---|---0---0--0---|--0---|--0--0--|
A ||--------------|------|------------------|--3-----------|------|--------|
E ||-3------------|-2----|-0----------------|--------------|-2----|-3------|
And I kept your heart
On a chain around my neck
And you swore to me "forever"
But forever fell apart

REPEAT CHORUS
BRIDGE
Em7    Cadd9     G
So come back to me
Em7                  Cadd9           G        D/F#                
I've saved your promises in a box beneath my bed
Em7          Cadd9         G6
Now your touch is like a memory
Em7           Cadd9          G6
And your words are my souvenir

REPEAT VERSE 1 AND CHORUS

Hope you like it ^_^..for comments text me… 09099753604 or add me in ur facebook 
ranyotadoy@gmail.com :)
Tap to rate this tab
# A B C D E F G H I J K L M N O P Q R S T U V W X Y Z