Song name
# A B C D E F G H I J K L M N O P Q R S T U V W X Y Z

Alex Gaudino - Destination Calabria tab

Hi just changed the tabs into a simpler playstyle as you will get a loose string instead of the
old 5th fret on A string one, Credit goes to Pete for the previous tab.

      D     A   D     A   F  A  C      E  A
e|------------------------------------------------------------------------|
B|------------------------------------------------------------------------|
G|----------2---------2------2--5---------2-------------------------------|
D|----0---------0---------3------------2----------------------------------|
A|------------------------------------------------------------------------|
E|------------------------------------------------------------------------|


      D     A   D     A   
e|------------------------|   
B|------------------------|
G|----------2---------2---| Repeat this then it gets faster
D|----0---------0---------|
A|------------------------|
E|------------------------|

    D  A  D  A  D  A D A  
e|------------------------|
B|------------------------|
G|-----2-----2-----2---2--| Double Time
D|--0-----0-----0----0----|
A|------------------------|
E|------------------------|

It's your choice, well thanks for the tabs to such a great song!
Tap to rate this tab
# A B C D E F G H I J K L M N O P Q R S T U V W X Y Z