Song name
# A B C D E F G H I J K L M N O P Q R S T U V W X Y Z

Alex Kaneko - As You Bring Tomorrow tab

As You Bring Tomorrow - Alex Kaneko 
TAB BY: AKRA (PETE) SOMKUL

Standard Tuning 

(If my tab's not 100%, it'll be pretty damn close) 



Order: 
Intro 
Pre-chorus 
Chorus 
Verse 
Pre-chorus 
Chorus 
Outro 

Intro/Verse: Play 4 times 
e|-------0--------------5/4p0------------0----------------------------------| 
B|------------0---0----------------0----------0-----------------------------| 
G|-----2----------4---4----------4-2---2--------------2-----2---------------| 
D|---2------2---2---4----------4-----2------2---2---2-----2-----2-----------| 
A|-0--------------------------------------------------------------0---------| 
E|----------------4----------------2--------------0-----2-----4-------------| 


Pre-chorus: Play 2 times 
e|-------0--------------0----0--------0----0---------0----0-----------------| 
B|------------0-------------------------------------------------------------| 
G|-----7--------------7-------------4--------------2------------------------| 
D|---7------7---7---7------7------4------4---4---2------2---2---------------| 
A|-5--------------4-------------2--------------0----------------------------| 
E|--------------------------------------------------------------------------| 


Chorus: Play 2 times 
e|----------------------0---------------------------------------------------| 
B|-0--0--2--0-(0)(0)(0)-0---------------------------------------------------| 
G|-2--2--2--2--7--7--4--2----7--9-------------------------------------------| 
D|-2--2--0--2--7--7--4--2----7--9-------------------------------------------| 
A|-0--0--0--0--5--4--2--1----5--7-------------------------------------------| 
E|-0--4--0--2---------------------------------------------------------------| 


Outro 
e|-------0---------------0--------------0--2----------0---------------------| 
B|------------------------------------------------0---2---------------------| 
G|-----2------2--------2------2-------2-------2---2---2---------------------| 
D|---2------2---2---0-------2---2---0---------0-------2---------------------| 
A|-0--------------------------------------------------0---------------------| 
E|----------------2---------------0-----------0---0-------------------------|
Tap to rate this tab
 
# A B C D E F G H I J K L M N O P Q R S T U V W X Y Z