Alex Lifeson - Sending Out A Warning tab

Victor: Sending Out a Warning
From the album Victor (Atlantic Records)
Copyright 1996 Lerxst Music Inc.
Music by Alex Lifeson and Bill Bell
Lyrics by Alex Lifeson

Transcribed by Richard J. Soto 

The 1st chorus' guitar uses super evil distortion & tone.
The 2nd chorus' guitar has a drier distortion.
The verses seem to have a very thick chorus effect.
In certain parts of the song Alex layers guitars and plays
some wierd bends in the background. That stuff isn't
tabbed here.

--------------------------1p0-------------0-3-----------1p0----------------|--
---------------------------------------------------------------------------|--
----------------------3vvv----------0h2h3-----------3vvv----------0h2h3vvv-|--
---------------------------------------------------------------------------|--
---------------------------------------------------------------------------|--
----------------3--3----------3--3------------3--3----------3--3-----------|--
 Riff-A Play 4x .  .        . .  .          . .  .        . .  .

---------------------------------|-------------|------------------------------|
---------------------------------|-------------|------------------------------|
-------0-------0---------------3-|-------------|------------------------------|
-----3-------3-----0h2-3---1h3---|-------------|------------------------------|
---3-------3-----1---------------|-------------|------------------------------|
-1-------1---------------3-------|-------------|------------------------------|
 Rhy.1 Play 4x                     Play Riff-A

---------------------------------------------------------|---------------|----
---------------------------------------------------------|---------------|----
------------0--------------------0---0----------0--------|---------------|----
----------3-------3------------8---8----------8----------|---------------|----
-------3-------------------8---------------8-------------|---------------|----
-1-1-----------------------------------6-----------------|---------------|----
 Rhy.2 Play 3x                                             Drum Build-up

-----------------------|-------------|---------------|-------------|----------|
-----------------------|-------------|---------------|-------------|----------|
-3---3-----------------|-------------|---------------|-------------|----------|
-3---3---2---------1---|-------------|---------------|-------------|----------|
-1---1-2-------2-------|-------------|---------------|-------------|----------|
-------0---3b--0-1---0-|-------------|---------------|-------------|----------|
 Riff-B Play 8x          Play Riff-A   Play Rhy.2 3x   Play Riff-A

---------------1-1--1----------3-3--3----------1-1--1----------3-3--3-------|-
---------------3-3--3----------5-5--5----------3-3--3----------5-5--5-------|-
---------------3-3--3----------5-5--5----------3-3--3----------5-5--5-------|-
---------------3-3--3----------5-5--5----------3-3--3----------5-5--5-------|-
---------------1-1--1----1-----3-3--3----------1-1--1----1-----3-3--3-------|-
----------------------------1------------0--1---------------1---------------|-
 Rhy.3 Play 4x   .     .         .     .         .     .         .     .

--------------------------|-------------------------------------------------|-
--------------------------|-------------------------------------------------|-
--------------------------|-------------------------------------------------|-
--------------------------|-------------------------------------------------|-
--------------------------|-------------------------------------------------|-
--------------------------|-------------------------------------------------|-
 Play (Rhy.3 + Riff-A) 2x   Play Riff-B 11x (Fade begins after 6th play)-end
Tap to rate this tab
 
# A B C D E F G H I J K L M N O P Q R S T U V W X Y Z