Song name
# A B C D E F G H I J K L M N O P Q R S T U V W X Y Z

Alex Lloyd - Green tab

Song: "Green"
Artist: Alex Lloyd
Album: Watching Angels Mend (2001)
Tabbed by: Daniel Gammon

I recently saw Alex and his band play Cold live at the Chapel
and this is the right way to play this song. He plays the G minor
in the pre chorus differently but it's the right chord. Listen
to CD for timing.

Verse

e|---3-------3-------3-------3-----------|
B|---3---1---3---1---3---1---3---1----1--|
G|---0---0---0---0---0---0---0---0----2--|
D|---0---2---0---2---0---2---0---2----2--|
A|---2---3---2---3---2---3---2---3-------|
E|---3-------3-------3-------3-----------|

e|---3-------3-------3-------3----------------|
B|---3---1---3---1---3---1---3---1----1---1---|
G|---0---0---0---0---0---0---0---0----2---0---|
D|---0---2---0---2---0---2---0---2----2---2---|
A|---2---3---2---3---2---3---2---3--------3---|
E|---3-------3-------3-------3----------------|


Pre Chorus
e|-----------------------|
B|-------4---------------|
G|---3---3---2---7---7---|
D|---5---5---3---8---8---|
A|---5---3---3---8---8---|
E|---X-------1---6---5---|


Chorus
e|-------------------|
B|---4---8-----------|
G|---5---8---7---2---|
D|---5---8---8---3---|
A|---3---6---8---3---|
E|-----------6---1---|

Any comments, suggestions or abuse: whipping_synergy@yahoo.com
Tap to rate this tab
 
# A B C D E F G H I J K L M N O P Q R S T U V W X Y Z