Song name
# A B C D E F G H I J K L M N O P Q R S T U V W X Y Z

Alex Lloyd - Lucky Star tab

Song: "Lucky Star", "My Way Home" and "Black the Sun"
Artist: Alex Lloyd
Album: Black the Sun
Tabbed by: Daniel Gammon

Here are the verses for Lucky Star, My Way Home and Black the Sun.
Lucky Star and My Way Home are 100% correct and Black the Sun is oh
so close. All the other parts of these three songs are too easy and
I couldn't be bothered tabbing it.

Lucky Star Verse (this is exactly how Alex plays it)

e|----X----X----X----X----|
B|----X----X----X----X----|
G|----5----5----5----5----|
D|----7----6----5----4----|
A|----0----0----0----0----|
E|----X----X----X----x----|

The chorus chords for Lucky Star are Em, G, C_________D


My Way Home Verse

e|--------------0----|
B|----3----3----0----|
G|----4----4----0----|
D|----4----4----2----|
A|----2----0----2----|
E|----x----X----0----|


Black the Sun Verse

e|---------------------------------------------------------------------|
B|-----0-------0-------0-------0--------0--------0--------1-------1----|
G|---0---0---0---0---0---0---0---0----0---0----0---0----0---0---0---0--|
D|-2-------2-------1-------1--------0-------0--------------------------|
A|----------------------------------------------------3-------3--------|
E|---------------------------------------------------------------------|


Any suggestions: whipping_synergy@yahoo.com
Tap to rate this tab
 
# A B C D E F G H I J K L M N O P Q R S T U V W X Y Z