Song name
# A B C D E F G H I J K L M N O P Q R S T U V W X Y Z

Alex Lloyd - Outside tab

Help us improve GuitareTab! Take a short survey!
			Alex Lloyd - Outside

Tabbed by: Jeremy Tan (jeroking8)
Email: Fresh_Liquid@hotmail.com
Comments: I've tabbed this as accurately as possible... My approximation of the strum 
has been added too. There should be some variations in the last chorus, but I haven't 
those yet. For any errors or changes, please email me.


Acoustic and Electric Guitar


Intro/Verse:

    V    v ^ V    V ^ v ^ v    v ^ v ^ V    v ^ V    V ^ v ^ v    v ^ v ^
e|--3----x-x-3----x-x-x-x-x----x-x-x-x-3----x-x-3----x-x-x-x-x----x-x-x-x--|
B|--3----x-x-3----x-x-x-x-5----5-5-5-5-3----x-x-3----x-x-x-x-5----5-5-5-5--|
G|--4----x-x-4----x-x-x-x-5----5-5-5-5-4----x-x-4----x-x-x-x-5----5-5-5-5--|
D|--5----x-x-5----x-x-x-x-5----5-5-5-5-5----x-x-5----x-x-x-x-5----5-5-5-5--|
A|--5----x-x-5----x-x-x-x-3----3-3-3-3-5----x-x-5----x-x-x-x-3----3-3-3-3--|
E|--3----x-x-3----x-x-x-x-x----x-x-x-x-3----x-x-3----x-x-x-x-x----x-x-x-x--|


Bridge:
    v        v    v ^ v ^ v  v ^ v ^ v        v    v ^ v ^ v  v ^ v ^
e|---------------------------------------------------------------------|
B|--5--------5----5-5-5-5-5--5-5-5-5-4--------4----4-4-4-4-4--4-4-4-4--|
G|--0--------0----0-0-0-0-0--0-0-0-0-0--------0----0-0-0-0-0--0-0-0-0--|
D|--6--------6----6-6-6-6-6--6-6-6-6-5--------5----5-5-5-5-5--5-5-5-5--|
A|--7--------7----7-7-7-7-7--7-7-7-7-6--------6----6-6-6-6-6--6-6-6-6--|
E|---------------------------------------------------------------------|

    v        v    v ^ v ^ v  v ^ v ^ v        v    v ^ v ^ v  v ^ v ^
e|---------------------------------------------------------------------|
B|--3--------3----3-3-3-3-3--3-3-3-3-2--------2----2-2-2-2-2--2-2-2-2--|
G|--0--------0----0-0-0-0-0--0-0-0-0-0--------0----0-0-0-0-0--0-0-0-0--|
D|--4--------4----4-4-4-4-4--4-4-4-4-3--------3----3-3-3-3-3--3-3-3-3--|
A|--5--------5----5-5-5-5-5--5-5-5-5-4--------4----4-4-4-4-4--4-4-4-4--|
E|---------------------------------------------------------------------|


Chorus:

    v        v    v ^ v ^ v  v ^ v ^ v        v    v ^ v ^ v  v ^ v ^
e|-----------------------------------3--------3----3-3-3-3-3--3-3-3-3--|
B|--1--------1----1-1-1-1-1--1-1-1-1-3--------3----3-3-3-3-3--3-3-3-3--|
G|--0--------0----0-0-0-0-0--0-0-0-0-0--------0----0-0-0-0-0--0-0-0-0--|
D|--2--------2----2-2-2-2-2--2-2-2-2-0--------0----0-0-0-0-0--0-0-0-0--|
A|--3--------3----3-3-3-3-3--3-3-3-3-2--------2----2-2-2-2-2--2-2-2-2--|
E|-----------------------------------3--------3----3-3-3-3-3--3-3-3-3--|

    v        v    v ^ v ^ v  v ^ v ^ v        v    v ^ v ^ v  v ^ v ^
e|--2--------2----2-2-2-2-2--2-2-2-2-0--------0----0-0-0-0-0--0-0-0-0--|
B|--3--------3----3-3-3-3-3--3-3-3-3-1--------1----1-1-1-1-1--1-1-1-1--|
G|--2--------2----2-2-2-2-2--2-2-2-2-2--------2----2-2-2-2-2--2-2-2-2--|
D|--0--------0----0-0-0-0-0--0-0-0-0-2--------2----2-2-2-2-2--2-2-2-2--|
A|-----------------------------------0--------0----0-0-0-0-0--0-0-0-0--|
E|-----------------------------------0--------0----0-0-0-0-0--0-0-0-0--|


Structure:

Intro (Acoustic)                     x6
Bridge (Acoustic and Electric)       x1
Chorus (Acoustic and Electric)       x2
Verse (Electric)                     x2
Verse (Acoustic)                     x4
Bridge (Acoustic and Electric)       x1
Chorus (Acoustic and Electric)       x4
Verse (Acoustic single strums)       x2
Bridge (Acoustic and Electric)       x1
Chorus (Acoustic and Electric)       x4
Related for Outside tab