Song name
# A B C D E F G H I J K L M N O P Q R S T U V W X Y Z

Alex Lloyd - Hello The End tab

-------------------------------------------------------------------------------
                             Hello The End - Alex Lloyd
-------------------------------------------------------------------------------
Tabbed by: Sean Sullivan
E-mail: themindsnexus@hotmail.com

Tuning: Standard EADGBe


Intro
E|-------------------------------------------------------------|
B|--3----3--------3----3--------3----3--------2-2--2-0-2-------|
G|--2--2---2---2--2--2---2---2--2--2---2---2--2-2--2-2-2-------|
D|--0--------0----x-------------x-------------2-2--2-2-2-------|
A|----------------3--------3----2--------2----0-0--0-0-0-------|
E|-------------------------------------------------------------|

Dm   Am   C   G


Dm          Am 
This is the end, my friend
    C                   G  
The end, my friend, the end
Dm                 Am
I hope to see you again, my friend
 C                 G
Again, my friend, again

    Dm        Am             
And I 
               C        G
didn't want to hold you back
    Dm        Am
And I 
               C      
didn't want to see you off now
G
Down the wrong track

 A            G   
This time, it makes so sense at all
 A            G                   
I'm standing still while others fall
 C               A 
Keeps shrinking every second

Dm          Am                
Count 4 and we'll begin
C           G
We'll begin again
Dm           An 
This time, release, my friend
 C                      G
Release, my friend, the end

    Dm        Am             
And I 
               C        G
didn't want to hold you back
    Dm        Am
And I 
               C      
didn't want to see you off now
G
Down the wrong track

 A            G   
This time, it makes so sense at all
 A            G                   
I'm standing still while others fall
 C               A 
Keeps shrinking every second

SOLO
E|-------------------------------------------------------------|
B|-------------------------------------------------------------|
G|-------------------------------------------------------------|
D|-12hbr-12-10-9----10-9---------------------------------------|
A|---------------12------12-10---------7-8-7-------------------|
E|-----------------------------10-8-10-------10----------------|

E|-------------------------------------------------------------|
B|-------------------------------------------------------------|
G|-------------------------------------------------------------|
D|-12hbr-12--15-14-10---10-9-----------------------------------|
A|---------------------------12-10---------8-10/12-12-12\------|
E|---------------------------------10-8-10---------------------|

 A               G
Elusive personality
 A                          G
I think you know as much as me
C                      A 
Keeps shrinking every second


Outro is the same as the intro with "The end" and "Hello" repeated over the top.
Tap to rate this tab
# A B C D E F G H I J K L M N O P Q R S T U V W X Y Z