Song name
# A B C D E F G H I J K L M N O P Q R S T U V W X Y Z

Alex Lloyd - Never Meant To Fail tab

Alex Lloyed
Never Meant to Fail
Tabbed by Jake May

G'day everyone. I've known this song for ages but no one ever tabs it right so here it is.

Capo on the 4th fret

Verse

Em   Em/C#m    C    G     G/F# (Transition chord)  X4

Bridge

D7     Am7


Chorus

Em      G     D     Am     X2

Also behind the chords you've got the electric going playing this:

Bridge

e------------------------------------|
B--1-1-1-1-1-1-1-1-1-1-0-0-1-1-------|
G------------------------------0-----|
D------------------------------------|   x2
A------------------------------------|
E------------------------------------|

Chorus:

e------------------------2-2-2-2-2-2-2-2-2-2-0-0-0-0---0---0----|
B------1-0-------1-0---------------------------------1---1---0--|
G----0---------0------------------------------------------------| X2
D--2---------0--------------------------------------------------|
A---------------------------------------------------------------|
E---------------------------------------------------------------|

Solo:

e------------------------------------------------------------------|
B----------------------------------------------------5---7-8-7-----|
G----------------4--4-4-4-2-0-2--2-2-2-0---------4-4---------------|
D--4-4-4--4-4-2-0------------------------4/5--5-5------------------|
A------------------------------------------------------------------|
E------------------------------------------------------------------|


e-----------------------------------------------|
B-5-5-5-5-5/7-7/3-3/-10-10--10-10-8-7--10-8-7-5-|
G-----------------------------------------------|
D-----------------------------------------------|
A-----------------------------------------------|
E-----------------------------------------------|


this is an absolutely awesome song.
Peace out from Jacobi.
Tap to rate this tab
 
# A B C D E F G H I J K L M N O P Q R S T U V W X Y Z