Song name
# A B C D E F G H I J K L M N O P Q R S T U V W X Y Z

Alex Turner - Piledriver Waltz chords

Highlighted       Show chord diagrams
Well, there's already some right tabs for this song, I just wanted to do one with 
solo! Arctic Monkey's version is in Capo 3rd fret.

English isn't my mother tongue so if you don't understand something please contact 
at: enat@live.fr

It's in 3/4, it means that you play chords 3 times instead of 4.
Rythm:

e|-x------x---x---x------x---x---x-------x---x---|
B|-x------x---x---x------x---x---x-------x---x---|
G|-x------x---x---x------x---x---x-------x---x---|
D|-x------x---x---x------x---x---x-------x---x---|    
A|-x------x---x---x------x---x---x-------x---x---|
E|-x------x---x---x------x---x---x-------x---x---|

   1      +       2      +       3       +

Capo 1st fret.

Chords used (relative to capo):

Verse:                         Chorus:
  C:         Am:    E:   F:             Dm:   G:
e|--X----3------0-----0-----1--------------1-----3---------|
B|--1----5------1-----0-----1--------------3-----3---------|
G|--0----5------2-----1-----2--------------2-----4---------|
D|--2-or-5------2-----2-----3--------------0-----5---------|    
A|--3----3------0-----2-----3--------------------5---------|
E|--X----X------------0-----1--------------------3---------|

Verse 1:

C                          Am
I etched the face of a stopwatch 

                     E
On the back of a raindrop 

                                  F
And did a swap for the sand in an hourglass. 

C                       Am
  I heard the nun happy ending it sort of sounds like you’re leaving 

E                              F
  I heard the piledriver waltz, it woke me up this morning. 


Chorus :

                     F                         Dm         Am
You look like you’ve been for breakfast at the heartbreak hotel 

Am                            F                 Dm         Am          Am
Inside of a back booth by the pamphlets and the literature on how to lose. 

     F            G             C             C
Your waitress was miserable and so was your food. 

                F                                             G
If you’re gonna try and walk on water make sure you wear your comfortable 

shoes. 


Verse 2:

C                       Am                                E
Mysteries flashing amber go green when you answer but the red on the rest of

    F
the questionnaire never changes. 

  C                               Am                           Em      
I heard the news that you’re trying to shoot me out of a cannon. 

                            F
I heard the piledriver waltz, it woke me up this morning. 


Chorus:

(Keep on the G here)
Oh, piledriver.

Solo:

   C      Am       E              F
   |       |       |              |
e|-9-11-8--9------------------------------------------|
B|--------------11-13-11-10-11-12-11--11-9-7-6--------|
G|-----------------------------------------------8-6--|
D|----------------------------------------------------|    3x
A|----------------------------------------------------|
E|----------------------------------------------------|


Have fun !

Tabbed by Enat
Tap to rate this tab
# A B C D E F G H I J K L M N O P Q R S T U V W X Y Z