Song name
# A B C D E F G H I J K L M N O P Q R S T U V W X Y Z

Alex Turner - Its Hard To Get Around The Wind tab

"Alex Turner - It's hard to get around the wind" (from the Submarine soundtrack) tab v1
By xen0blue

Verse

"It's like you're..."
E|----------1-3---|
B|-1-1-1-1--3---1-|
G|----------2-----|
D|-2-2-2-2------2-|
A|-3-3-3-3----2-3-|
E|------------3---|
(repeat x2)

Bridge

"Looking for a new..."
E|-1---1-3-------|
B|-1-1-3---------|
G|-2---2---------|
D|-3-2-----------|
A|---3---2-------|
E|-------3-------|

Chorus

"But as long as you still..."
E|------1-2---3---|
B|--1-1-1-1-1---1-|
G|----3-2-2-----2-|
D|--2-2-3---2---2-|
A|--3-3-----3-2---|
E|------------3---|

"It's hard, to get around the wind..."
E|-1-3--|
B|-1----|
G|-2----|
D|-3----|
A|---2--|
E|---3--|

Interlude

E|---1-3---|
B|-1-3---1-|
G|---2-----|
D|-2-----2-|
A|-3---2-3-|
E|-----3---|
(repeat X2)

Verse

"Stretching out the neck..."
E|----------1-3---|
B|-1-1-1-1--3---1-|
G|----------2-----|
D|-2-2-2-2------2-|
A|-3-3-3-3----2-3-|
E|------------3---|
(repeat x2)

Bridge

"Looking for a new..."
E|-1---1-3-------|
B|-1-1-3---------|
G|-2---2---------|
D|-3-2-----------|
A|---3---2-------|
E|-------3-------|

Chorus

"But as long as you still..."
E|------1-2---3---|
B|--1-1-1-1-1---1-|
G|----3-2-2-----2-|
D|--2-2-3---2---2-|
A|--3-3-----3-2---|
E|------------3---|

"It's hard, to get around the wind..."
E|-1-3--|
B|-1----|
G|-2----|
D|-3----|
A|---2--|
E|---3--|

Interlude

E|---1-3---|
B|-1-3---1-|
G|---2-----|
D|-2-----2-|
A|-3---2-3-|
E|-----3---|
(repeat X2)


End

"I can hear you through my window..."
E|----------1-3---|
B|-1-1-1-1--3---1-|
G|----------2-----|
D|-2-2-2-2------2-|
A|-3-3-3-3----2-3-|
E|------------3---|
(repeat X2)
Tap to rate this tab
# A B C D E F G H I J K L M N O P Q R S T U V W X Y Z