Song name
# A B C D E F G H I J K L M N O P Q R S T U V W X Y Z

Alex Turner - Stuck On The Puzzle tab

Alex Turner - Stuck on the Puzzle
Tab by Tom Dixon

Intro

e|--------------------------------------------------------|
B|--------1-------1-------2-------------------------------|
G|----1-----0-------0---0---2--------2-------2-------2----|
D|-2----2-----2-------2-------2----4---4---4---4---4---4--|
A|---2----3-------3-------0------4-------4-------4--------|
E|-0------------------------------------------------------|x1-2

Alex doesn't play an intro but you its nice to play through once or twice before 
starting the song.

Verse

     E    C               A      F#
e|--------------------------------------------------------|
B|--------1-------1-------2-------------------------------|
G|----1-----0-------0---0---2--------2-------2-------2----|
D|-2----2-----2-------2-------2----4---4---4---4---4---4--|
A|---2----3-------3-------0------4-------4-------4--------|
E|-0------------------------------------------------------|x2

Strum the F# the second time through.

    E               C                                A   F#                  
I'm not the kind of fool who's gonna sit and sing to you, about stars girl
    E                 C                            A     F#(Strum)
But last night I look up into the dark half of the blue, and they've gone backwards.


Pre-Chorus - Strum 


A                 B         E                        G#
Something in your magnetism must have pissed them off
A               B            E          G#
Forcing them to get an early night
A           B                  E             G#                         A
I have been searching from the bottom to the top for such a site
Am 
As the one I caught when I saw your


Chorus - strum 


E       B           F#m
Fingers dimming the lights
          E             B              F#m
Like your used to being told that your trouble
      E     B   F#m                 E        B       F#m
And I spent all night, stuck on the puzzle


Verse

     E    C               A      F#
e|--------------------------------------------------------|
B|--------1-------1-------2-------------------------------|
G|----1-----0-------0---0---2--------2-------2-------2----|
D|-2----2-----2-------2-------2----4---4---4---4---4---4--|
A|---2----3-------3-------0------4-------4-------4--------|
E|-0------------------------------------------------------|x2

Again strum the F# second time through.

E        C                                A      F#m
Nobody I asked knew how he came to be the one who you surrendered.
E           C                        A          F#m (strum)
Any man who wasn't led away into the other room stood pretending


Pre-Chorus - strum


A                      B         E                     G# 
That something in your magnetism hadn't just made him drop
A                 B               E         G# 
Whoevers hand it was that he was holding
A           B                  E             G#              A
I have been searching from the bottom to the top for such a site
Am (strum once)
As the one I caught when I saw your 


Chorus - strum

E       B           F#m
Fingers dimming the lights
          E             B              F#m
Like your used to being told that your trouble
      E     B   F#m                  E      B    F#m
And I spent all night, stuck on the puzzle
  E        B           F#m
I tried to swim to the side
       E        B            F#m
But my feet got caught in the middle
      E           G#       A     F#m
And I thought Id seen the light
          B A
But oh no, 
G#            F#m          E     B    F#m
   I was just stuck on the puzzle
               E     B    F#m
Stuck on the puzzle
E       B       F#m   x2


This part i'm not entirely sure about. Its the tremolo picking part that starts after "But oh no".

e|---------------------------------------------------------------------|
B|-1717171717171717-1414141414141414-1212121212121212-1010101010101010-|
G|---------------------------------------------------------------------|
D|---------------------------------------------------------------------|
A|---------------------------------------------------------------------|
E|---------------------------------------------------------------------|x1

e|---------------------------------------------------------------------|
B|-1717171717171717-191919191919-1616-14141414141414141414141414141414-|
G|---------------------------------------------------------------------|
D|---------------------------------------------------------------------|
A|---------------------------------------------------------------------|
E|---------------------------------------------------------------------|x2


e|----------------------------------------------------------------------|
B|-171717171717-1919-161616161616-1717-14141414141414141414141414141414-|
G|----------------------------------------------------------------------|
D|----------------------------------------------------------------------|
A|----------------------------------------------------------------------|
E|----------------------------------------------------------------------|x1

e|---------------------------------------------------------------------|
B|-1717171717171717-191919191919-1616-14141414141414141414141414141414-|
G|---------------------------------------------------------------------|
D|---------------------------------------------------------------------|
A|---------------------------------------------------------------------|
E|---------------------------------------------------------------------|x1

Finish on F#
Tap to rate this tab
 
# A B C D E F G H I J K L M N O P Q R S T U V W X Y Z