Song name
# A B C D E F G H I J K L M N O P Q R S T U V W X Y Z

Alexander Mikhaylovich Ivanov-kramskoy - Prelude In Em - Andante Con Espressione tab

    * Aleksander Michailovich Ivanov-Kramskoy *

                      PRELUDE
=====================================================
                      ___
H - half note         |p|
                    --3=2--  - pull-off
| - quarter note
__                   arp. - to play arpeggiately
|  - eight note

} - quarter rest

=====================================================

Andante con espressione
2/4

  ==3== ==3== ==3== ==3==   ==3== ==3== >______
  | | | | | | | | | | | |   | | | | | | |     |
|-------------------------|-------------3====-2====-|
|-----2-----2-----1-----1-|-----1-----1-----1-----1-|
|---3-----3-----2-----2---|---2-----2-----2-----2---|
|-5====-4====-4====-3====-|-2====-1====-------------|
|-------------------------|-------------------------|
|-------------------------|-------------------------|
  |     |     |     |       |     |     | | | | | |
  -------     -------       -------     ==3== ==3==
  4     3     4     3 2 1         1 3 2 4     4

[mf] >>>>>>>>>>>>>>>>>>                 >>>>>>>>>>>>


 II - - - - - - - - - - - - - - - - - -\
  ==3== ==3== >______       ==3== ==3== >______
  | | | | | | |     |       | | | | | | |     |
|-------------3-----2-----|-------------2-----0-----|
|-----4-----4-----4-----4-|-----4-----4-----0-----0-|
|---2-----2-----2-----2---|---2-----2-----0-----0---|
|-------------------------|-------------------------|
|-3-----2-----------------|-3-----2-----------------|
|-------------------------|-------------0-----------|
  |     |     | | | | | |   |     |     | | | | | |
  >------     ==3== ==3==   >------     ==3== ==3==
  2   3       2  

                                        V - - - - - -

|-------------------------|-8====-7====-7====-5====-|
|-----6-----6-----6-----6-|-----6-----6-----5-----5-|
|---7-----7-----7-----7---|---7-----7-----5-----5---|
|-9====-7====-7====-6======(6)===-------7====-------|
|-------------------------|-------------------------|
|-------------------------|-------------------------|
  4 2 1 3     3     1 3 2   4     4     4
                                        3

                                               rit.
|-----0-----0-----0-----0-|-----0-----0-------------|
|---1-----1-----1-----1---|---1-----1-------0-----0-|
|-------------4-----2-----|---------------2-----2---|
|-2-----4-----------------|-2-----4-----1-----------|
|-------------------------|-------------------2-----|
|-------------------------|-------------------------|
  2

  a tempo

  repeat first four measures
             
  IX - - - - - -\                                  VII -- - - -\ 
                                   >________       ________
                                   |       |       |      |
|--------------------------------|-12=====-10=====-10====-8====-|
|-------9-------9-------9------9-|-------9-------9------7-----7-|
|----10------10------10-----10---|----10------10------9-----9---|
|-12------10------10------9------|-9---------------7------------|
|--------------------------------|------------------------------|
|--------------------------------|------------------------------|
  4  2  1 3       3  4  2 1 3  2   4       4       4

                                        III - - - - \
|-----0-----0-----0-----0-|-----0-----0-----3-------|
|-------------------------|-----------------------3-|
|---3-----3-----3-----3---|---3-----3-----4-----4---|
|-------4-----5-----2-----|-------4-----5-----------|
|-3-----------------------|-4-----------------5-----|
|-------------------------|-------------------------|
  2 3   4     4                   4     4     3 2
[p]       <<<<<<<<<<<<<<

  V - - - - -\             II - - - - -\

  ==3== >=3== >=3== ==3==   ==3== >=3== >=3== >=3==
  | | | | | | | | | | | |   | | | | | | | | | | | |
|-------5-----3-----0-----|-------2-----0-----------|
|-----7-----7-----0-----0-|-----4-----4-------0-----|
|---5-----5-----0-----0---|---2-----2-------0-----0-|
|-------7====-2==========-|---------------2-----2---|
|-6====-------------------|-3====-2====-------------|
|-------------------------|-------------3====-0====-|
  |     |     |             |     |     |     |
  -------                   >------     -------
  2     3                   2
  
  ==3== ==3== ==3== ==3==   ==3== ==3== ==3== ==3==
  | |h| | | | | | | | | |   | |h| | | | | | | | |h|
|-----------0-------------|-----------0-------------|
|---------1---0-----------|---------1---0-----------|
|-------2---------0-----0-|-------2---------0-------|
|---2=4---------2-----2---|---2=4---------2-----2=4-|
|-0==========-------------|-0==========-------0====-|
|-------------3====-0====-|-------------3====-------|
  | 2 4 2 1   |     |       |           |     |
              -------                   -------

              rit.
|-------------0-----------|
|-----------0-------------|
|-----0---2---0---0-----0-|
|---2-----1-----2-----2---|
|-2-----2-----------2-----|
|-------------0-----------|


  con anima
|-------------------------|-------------------------|
|-----2-----2-----1-----1-|-----1-----0-----0-----0-|
|---3-----3-----2-----2---|---2-----2-----0-----2---|
|-5-----4-----4-----3-----|-2-----1-----2-----------|
|-------------------------|-------------------2-----|
|-------------------------|-------------------------|

|-------------------------|-------------------------|
|-----2-----2-----1-----1-|-----1-----0-----0-----0-|
|---3-----3-----2-----2---|---2-----2-----0-----0---|
|-5-----4-----4-----3-----|-2-----1-----2-----------|
|-------------------------|-------------------2-----|
|-------------------------|-------------------------|

  arp.        arp.        arp.
|-----------|-----------|-0---------|-7========(7)===(7)---||
|-1========-|-0========-|-0---------|-5========(5)===(5)---||
|-3========-|-0========-|-0---------|-6========(6)===(6)---||
|-2========-|-2========-|-2---------|-7========(7)===(7)---||
|-3========-|-2========-|-0---------|--------|-----|-------||
|-}----0=====(0)---0----|-}----0=====(0)---0===(0)===(0)-{-||
       |      |    |     sf    |      |.   |    H     |
 [mf]                      [f]             --
Tap to rate this tab
 
# A B C D E F G H I J K L M N O P Q R S T U V W X Y Z