Song name
# A B C D E F G H I J K L M N O P Q R S T U V W X Y Z

Alexandra Hope - Invisible Sunday tab

Alexandra Hope
Album: Invisible Sunday(2009)
Song: Invisible Sunday
Tabbed by: Jedichewy
Tuning: Standard
(http://alexandrahopemusic.com/)

NOTES:
PLEASE listen to the song to get a more better feel of the strumming
patterns and how and where to use slide.

INTRO:

             SLIDE>               SLIDE>
e|---------------------------------------------------|
B|---------------------------------------------------|
G|---------------------------------------------------|
D|---------------------------------------------------|
A|-11-11-11-11--6-6-6-6--6--11-11-11-11--6-6-6-6--6--|
E|-0--0--0--0---0-0-0-0--0--0--0--0--0---0-0-0-0--0--|

               S>            S>            S>
e|-----------------------------------------------|
B|-----------------------------------------------|
G|-----------------------------------------------|
D|-----------------------------------------------|
A|-11-11-11-11-9-11-11-11-11-9-11-11-11-11-9-11--|
E|-0--0--0--0--0-0--0--0--0----0--0--0--0--0-0---|

VERSE:

  SLIDING>>>>>>>>>> > > >
e|-------------------------------------------------------------------|
B|-------------------------------------------------------------------|
G|-------------------------------------------------------------------|
D|-------------------------------------------------------------------|
A|-12--9-9--11-11-11--12--9-9--11-11-11--12--9-9--11-11---11-11-11---|
E|-0---0-0--0--0--0---0---0-0--0--0--0---0---0-0--0--0---0--0--0--0--|
"When we first met you had this look..."

CHORUS
  REPEAT X4
e|---------------------------------------------------------------|
B|-9--9--9--9--9--9--9--9----9--9--9--9--9--9--9--9--------------|
G|-9--9--9--9--9--9--9--9----9--9--9--9--9--9--9--9--------------|
D|-11-11-11-11-11-11-11-11---9--9--9--9--9--9--9--9--------------|
A|-0--0--0--0--0--0--0--0----11-11-11-11-11-11-11-11-------------|
E|---------------------------0--0--0--0--0--0--0--0--------------|


AFTER THE 4th PLAY THIS
e|--------------------------|------------------------------|
B|-9--9--9--9--9--9--9--9---|--------------9--9--9--9------|
G|-9--9--9--9--9--9--9--9---|-10-10-10-10--9--9--9--9------|
D|-9--9--9--9--9--9--9--9---|-11-11-11-11--9--9--9--9------|
A|-11-11-11-11-11-11-11-11--|-11-11-11-11--11-11-11-11-----|
E|-0--0--0--0--0--0--0--0---|-9--9--9--9---0--0--0--0------|

e|----------------------------------------------------------------|
B|----------------------------------------------------------------|
G|-10-10-10-10--9--9--9--9---10-10-10-10--9--9--9--9--9--9--9--9--|
D|-11-11-11-11--9--9--9--9---11-11-11-11--9--9--9--9--9--9--9--9--|
A|-11-11-11-11--11-11-11-11--11-11-11-11--11-11-11-11-11-11-11-11-|
E|-9--9--9--9---0--0--0--0---9--9--9--9---0--0--0--0--0--0--0--0--|


e|----------------|
B|----------------|
G|-9--9--9--9-----|
D|-9--9--9--9-----|
A|-11-11-11-11----|
E|-0--0--0--0-----|

BACK TO VERSE

THEN CHORUS

BRIDGE: (When she sings "what good is this love when I'm always
         on my knees..."

e|------------------------------------------------------------|
B|------------------------------------------------------------|
G|------------------------------------------------------------|
D|------------------------------------------------------------|
A|-12-12-12-12--11-11-11-11--12-12-12-12--11-11-11-11---------|
E|-0--0--0--0---0--0--0--0---0--0--0--0---0--0--0--0----------|

e|-------------------------------------------------------------------|
B|-------------------------------------------------------------------|
G|-------------------------------------------------------------------|
D|-------------------------------------------------------------------|
A|-12-12-12-12--11-11-11-11--12-12-12-12-12-12-12-12-12-12-12-12-----|
E|-0--0--0--0---0--0--0--0---0--0--0--0--0--0--0--0--0--0--0--0------|

e|----------------------------------------------------------------|
B|----------------------------------------------------------------|
G|----------------------------------------------------------------|
D|----------------------------------------------------------------|
A|-12-12-12-12--11-11-11-11-11-11-11-11-11-11-11-11-11-11-11-11---|
E|-0--0--0--0---0--0--0--0--0--0--0--0--0--0--0--0--0--0--0--0----|

e|-------------------------------------------------------|
B|--------------9--9--9--9----------------9--9--9--9-----|
G|-10-10-10-10--9--9--9--9---10-10-10-10--9--9--9--9-----|
D|-11-11-11-11--9--9--9--9---11-11-11-11--9--9--9--9-----|
A|-11-11-11-11--11-11-11-11--11-11-11-11--11-11-11-11----|
E|-9--9--9--9---0--0--0--0---9--9--9--9---0--0--0--0-----|

e|-------------------------------------------------------|
B|--------------9--9--9--9----------------9--9--9--9-----|
G|-10-10-10-10--9--9--9--9---10-10-10-10--9--9--9--9-----|
D|-11-11-11-11--9--9--9--9---11-11-11-11--9--9--9--9-----|
A|-11-11-11-11--11-11-11-11--11-11-11-11--11-11-11-11----|
E|-9--9--9--9---0--0--0--0---9--9--9--9---0--0--0--0-----|

                        END
e|------------------------------|
B|-9--9--9--9--9--9--9--9-------|
G|-9--9--9--9--9--9--9--9-------|
D|-9--9--9--9--9--9--9--9-------|
A|-11-11-11-11-11-11-11-11------|
E|-0--0--0--0--0--0--0--0-------|

End!

AGAIN, PLEASE listen to the song to get the shifting, sliding and strumming patterns as 
done this song as basic and simple as I can.

Feedback? Just say so! Thanks!
Tap to rate this tab
# A B C D E F G H I J K L M N O P Q R S T U V W X Y Z