Song name
# A B C D E F G H I J K L M N O P Q R S T U V W X Y Z

Alexandra Stan - Mr Saxobeat tab

E |-----------2.----------------------2.---------------|
B |--0.----------------3-----0.----------------3-------|
G |----------------------------------------------------|
D |----------------------------------------------------|
A |----------------------------------------------------|
E |----------------------------------------------------|


-----------2.----------------------2.---------------|
--0.----------------3-----0.----------------3-------|
----------------------------------------------------|
----------------------------------------------------|
----------------------------------------------------|
----------------------------------------------------|


--0--------2.-------------0--------2.---------------|
--------------------3-----------------------3-------|
----------------------------------------------------|
----------------------------------------------------|
----------------------------------------------------|
----------------------------------------------------|


---------------------------||
--2.----------3.-3.-2.-2.--||
--------2.-2.-------------o||
--------------------------o||
---------------------------||
---------------------------||
Tap to rate this tab
 
# A B C D E F G H I J K L M N O P Q R S T U V W X Y Z