Alexandra Stan - Mr Saxobeat tab

Hi just a quick one for all you trance/techno kings out there.. bit of fun if your getting bored!

Chords are; 
B5 E5 F5

That's power chord/Bar B on E String and E then F on D String.

The Saxobeat rift is as follows;

e---------------------------------------------|
B---------------------------------------------|
G----11--7-----11--7----11--7----11--7--9--11-|
D--9--------9---------9--------9--------------|
A---------------------------------------------|
E---------------------------------------------|


e---------------------------------------------|
B---------------------------------------------|
G-7--9--11--7--6-------7-7-7-6----------------|
D-----------------7/9-------------------------|
A---------------------------------------------|
E---------------------------------------------|

Listen to the song for the effect and timing. Enjoy!
Tap to rate this tab
 
# A B C D E F G H I J K L M N O P Q R S T U V W X Y Z