Song name
# A B C D E F G H I J K L M N O P Q R S T U V W X Y Z

Alexandra Stan - Mr Saxobeat tab

this is my version from ear

e------2-------------|
b----0----3----------| x4 
g--------------------|
d--------------------|
a--------------------|
E -------------------|

e-0--2------|
b-------3---|  x4
g-----------|
d-----------|
a-----------|
E-----------|

e------------|
b-3-3--2-2-0-|
g------------|
d------------|
a------------|
E------------|
[Chorus]
You make me dance
Bring me up, bring me down
Play it sweet
Make me move like a freak
Mister Saxobeat

Makes me dance
Brings me up, brings me down
Plays it sweet
Makes me move like a freak
Mister Saxobeat

You make me dance
Bring me up, bring me down
Play it sweet
Make me move like a freak
Mister Saxobeat

Makes me dance
Brings me up, brings me down
Plays it sweet
Makes me move like a freak
Mister Saxobeat
Tap to rate this tab
# A B C D E F G H I J K L M N O P Q R S T U V W X Y Z