Song name
# A B C D E F G H I J K L M N O P Q R S T U V W X Y Z

Alexandra Stan - Mr Saxobeat tab

This is to Bill Casey's rock remix of Alexandra Stan's hit "Mr. Saxobeat". The cover can 
be seen here: http://www.youtube.com/watch?v=C-MWmn1bnu0

GUITAR 1 (LEAD): G1

INTRO:

G1
E-------------------------------------------------------|
B-------------------------------------------------------|
G-----11------11------11------11---9--11---9--11--------|
D--9----12-9----12-9----12-9----12------12------12-11\--|
A-------------------------------------------------------|
D-------------------------------------------------------|
(cont.)
E--------------------|
B--------------------|
G--------------------|
D--9h11h12-12-11-11--|
A--------------------|
D--------------------|
(cont.)
E-------------------------------------------------------------|
B-------------------------------------------------------------|
G-----11------11------11------11---9--11---9--11--------------|
D--9----12-9----12-9----12-9----12------12------12-11\--9h11--|
A-------------------------------------------------------------|
D-------------------------------------------------------------|
(cont.)
E---------------|
B---------------|
G---------------| 7x
D--12-12-11-11--|
A---------------|
D---------------|
(cont.)
E---------------------------------------------|
B---------------------------------------------|
G--------------------------11-------11--------|
D--12-12-12-12-12-12-12-12---12-11----12-11~--|
A---------------------------------------------|
D---------------------------------------------|


CHORUS:

G1
E-------------------------------------------------------|
B-------------------------------------------------------|
G-----11------11------11------11---9--11---9--11--------|
D--9----12-9----12-9----12-9----12------12------12-11\--|
A-------------------------------------------------------|
D-------------------------------------------------------|
(cont.)



E--------------------|
B--------------------|
G--------------------| Whole thing 4x
D--9h11h12-12-11-11--|
A--------------------|
D--------------------|


VERSE

G1
E----------------------------|
B----------------------------|
G----------------------------| 2x
D--12-9-7/9-9--7/9-9--7/9-9--|
A----------------------------|
D----------------------------|
(cont.)
E--------------------------------------|
B--15-12-10/12-12--10/12-12--10/12-12--|
G---x--x--x/-x--x---x/-x--x---x/-x--x--| 2x
D--12--9--7/-9--9---7/-9--9---7/-9--9--|
A--------------------------------------|
D--------------------------------------|


BREAKDOWN-THING

G1 (Simplified. For actual, listen for the picking)
E----------------------------------------------------|
B--12-12-10-10--------------12-12-10-10--------------|
G--------------12-12-11-11--------------12-12-11-11--|
D----------------------------------------------------|
A----------------------------------------------------|
D----------------------------------------------------|
(cont.)
E-----------------------------------------------|
B-----------------------------------------------|
G--12-12-9-9-12-12-9-9--11-9--------------------| Whole thing 2x
D----------------------------12-11-9-11-12-11~--|
A-----------------------------------------------|
D-----------------------------------------------|


INTERLUDE:

G1
E--------------------------------------------|
B-----------------10-------------------11----|
G--11-11-11-11-9----11--11-11-11-11-9----12--|
D--------------------------------------------|
A--------------------------------------------|
D--------------------------------------------|
(cont.)



E-------------------------------------------|
B-----------------------------------10-12~--|
G--12-12-12-12-11-9-9~--12-12-12-12---------|
D-------------------------------------------|
A-------------------------------------------|
D-------------------------------------------|
(cont.)
E--------------------------------------------|
B-----------------10-------------------11----|
G--11-11-11-11-9----11--11-11-11-11-9----12--|
D--------------------------------------------|
A--------------------------------------------|
D--------------------------------------------|
(cont.)
E--------------------------------------------|
B--------------------------------------------|
G--12-12-12-12-11-9-9~--12-12-12-12-12-16~~--|
D--------------------------------------------|
A--------------------------------------------|
D--------------------------------------------|

[REPEAT CHORUS, BUT 2x INSTEAD OF 4x]

[REPEAT VERSE]

[REPEAT INTRO]

[REPEAT CHORUS, BUT 3x AND END ON:]

G1
E-----------------------------------------------------------------|
B----------------------14-14-14-14-14-14-15-15-15-15-15-15-15-15--|
G-----11---11-14/16-16--------------------------------------------|
D--9----12--------------------------------------------------------|
A-----------------------------------------------------------------|
D-----------------------------------------------------------------|
(cont.)
E--17-17-17-17-19-19-19-19-21^~--|
B--------------------------------|
G--------------------------------|
D--------------------------------|
A--------------------------------|
D--------------------------------|
Tap to rate this tab
 
# A B C D E F G H I J K L M N O P Q R S T U V W X Y Z