Song name
# A B C D E F G H I J K L M N O P Q R S T U V W X Y Z

Alexandra Stan - Get Back tab

E-----------------------------------------------------------| 
A-----------------------------------------------------------| 
D-------------5-5-6-----------------------------------------| 
G-5-5---8-7----------5-5--8----7-7-5------------------------| 
B----------------------------8------------------------------| 
e-----------------------------------------------------------| 
                                                              
E-----------------------------------------------------------| 
A-----------------------------------------------------------| 
D-------------5-5-6-----------------------------------------| 
G-5-5---8-7----------5-5--8-------8-7-----------------------|  
B----------------------------8-6----------------------------| 
e-----------------------------------------------------------|

E-----------------------------------------------------------| 
A-----------------------------------------------------------| 
D-------------5-5-6-----------------------------------------| 
G-5-5---8-7----------5-5--8----7-7-5------------------------| 
B----------------------------8------------------------------| 
e-----------------------------------------------------------| 

E---------------------------------------------------------------------| 
A---------------------------------------------------------------------| 
D-------------5-5-6---------------------------------------------------| 
G-5-5---8-7----------5-5--8->.-----8-7--..8-6-------.<---8X6-8888-8--------8------| 
e---------------------------------------------------------------------|
Tap to rate this tab
# A B C D E F G H I J K L M N O P Q R S T U V W X Y Z