Song name
# A B C D E F G H I J K L M N O P Q R S T U V W X Y Z

Alexandre Desplat - New Moon tab

Tabbed by: Cathy
Email: catherine.everard.cullen@gmail.com

1-----2---2-3--0---0-2-----------------2--------------------------------------|
2-------3--------2------3-0-3-5-3-2-2-----------------------------------------|
3-----------------------------------------------------------------------------|
4-----------------------------------------------------------------------------|
5-----------------------------------------------------------------------------|
6-----------------------------------------------------------------------------|

(repeat: 2x)

1-----2-2-3--5----------3--5--2--2-2-10-9-9-7-7-5-5-3-2-2---2-2-3--0--2-2---|
2---------------7--7-7------------------------------------------------------|
3---------------------------------------------------------------------------|
4---------------------------------------------------------------------------|
5---------------------------------------------------------------------------|
6---------------------------------------------------------------------------|

1-----2---2-3--0---0-2-----------------2------------------------------------|
2-------3--------2-------3-0-3-5-3-2-2--------------------------------------|
3---------------------------------------------------------------------------|
4---------------------------------------------------------------------------|
5---------------------------------------------------------------------------|
6---------------------------------------------------------------------------|

(Repeat: 2x)

1-----2-2-3--5----------3--5--2--2-2-10-9-9-7-7-5-5-3-2-2---2-2-3--0--------|
2---------------7--7-7------------------------------------------------0-----|
3---------------------------------------------------------------------------|
4---------------------------------------------------------------------------|
5---------------------------------------------------------------------------|
6---------------------------------------------------------------------------|


This is not the exact tab, but i think it's really close. BTW, it is my first tab, so is 
not perfect. Hope you like it.
Tap to rate this tab
 
# A B C D E F G H I J K L M N O P Q R S T U V W X Y Z