Alexandre Desplat - The Meadow tab

-------------------------------------------------------------------------------
			     The Meadow - Alexandre Desplat
-------------------------------------------------------------------------------
Tabbed by:
Email:

Tuning:

e|-----2------------2----------3---------3--------0-------------0------------|
B|---------0----3-----------------0---3--------------------2-------------2---|
G|-----------------------------------------------------2-------------2-------|
D|---------------------------------------------------------------------------|
A|---------------------------------------------------------------------------|
E|---------------------------------------------------------------------------|

e|-------2----------------2-------3-----2------------------------------------|
B|-------------------2-------------------------------------------------------|
G|--------------3------------------------------------------------------------|
D|---------------------------------------------------------------------------|
A|---------------------------------------------------------------------------|
E|---------------------------------------------------------------------------|
Tap to rate this tab
 
# A B C D E F G H I J K L M N O P Q R S T U V W X Y Z