Song name
# A B C D E F G H I J K L M N O P Q R S T U V W X Y Z

Alexandre Desplat - New Moon tab

e||-----------8-------7--------5----|-----------8--------7-------5----|
B||----5----------------------------|----6----------------------------|
G||----5----------------------------|----5----------------------------|
D||---------------------------------|---------------------------------|
A||----0----------------------------|----0----------------------------|
E||---------------------------------|---------------------------------|


e||-----------7-------5--------3----|----4------0--------12------13---|
B||----3----------------------------|----5----------------------------|
G||----4----------------------------|---------------------------------|
D||---------------------------------|---------------------------------|
A||---------------------------------|---------------------------------|
E||----3----------------------------|----0----------------------------|


e||----12---------------------------|---------------------------------|
B||---------------------------------|---------------------------------|
G||-------9-------9--------9-----9--|-------9--------9-------9------9-|
D||-----------10------10------10----|-----------10-------10------10---|
A||----0----------------------------|----0----------------------------|
E||---------------------------------|---------------------------------|


e||----0--------------0-------------|----1---------------1------------|
B||---------------1-----------------|---------------1-----------------|
G||-----------2---------------------|-----------2---------------------|
D||---------------------------------|---------------------------------|
A||----0----------------------------|----0----------------------------|
E||---------------------------------|---------------------------------|


e||---------------------------------|---------------------------------|
B||----3--------------3-------------|----5---------------5------------|
G||---------------4--------------4--|---------------4-----------7-----|
D||-----------5---------------5-----|-----------6---------------------|
A||---------------------------------|---------------------------------|
E||----3----------------------------|----4----------------------------|


e||----0----------------------------|---------------------------------|
B||-----------1--------1------1-----|----1------1-------1-------1-----|
G||-------2-------2-------2------2--|-------2-------2-------2------2--|
D||---------------------------------|---------------------------------|
A||----0----------------------------|---------------------------------|
E||---------------------------------|---------------------------------|


e||----0--------------0-------------|----1---------------1------------|
B||---------------1-----------------|---------------1-----------------|
G||-----------2---------------------|-----------2---------------------|
D||---------------------------------|---------------------------------|
A||----0----------------------------|----0----------------------------|
E||---------------------------------|---------------------------------|


e||---------------------------------|---------------------------------|
B||----3--------------3-------------|----5---------------5------6-----|
G||---------------4-------4------4--|---------------4-----------------|
D||-----------5---------------5-----|-----------6---------------------|
A||---------------------------------|---------------------------------|
E||----3----------------------------|----4----------------------------|


e||----0----------------------------|-------------------0-------0-----|
B||-----------1--------1------1-----|----1------1---------------------|
G||-------2-------2-------2------2--|-------2-------2-------2------2--|
D||---------------------------------|---------------------------------|
A||----0----------------------------|---------------------------------|
E||---------------------------------|---------------------------------|


e||----1----------------------------|----3----------------------------|
B||-----------1------1-------1------|-----------0------0--------0-----|
G||-------2------2-------2------2---|-------0-------0-------0------0--|
D||---------------------------------|---------------------------------|
A||---------------------------------|---------------------------------|
E||----1----------------------------|----3----------------------------|


e||----0----------------------------|-------------------0-------0-----|
B||-----------1--------1------1-----|----1------1---------------------|
G||-------2-------2-------2------2--|-------2-------2-------2------2--|
D||---------------------------------|---------------------------------|
A||----0----------------------------|---------------------------------|
E||---------------------------------|---------------------------------|


e||----5----------------------------|----3----------------------------|
B||---------------------------------|-----------0-------0-------0-----|
G||-----------5-------5-------5-----|-------0-------0-------0------0--|
D||-------7-------7-------7------7--|---------------------------------|
A||----8----------------------------|---------------------------------|
E||---------------------------------|----3----------------------------|


e||----0----------------------------|-------------------0-------0-----|
B||-----------1--------1------1-----|----1------1---------------------|
G||-------2-------2-------2------2--|-------2-------2-------2------2--|
D||---------------------------------|---------------------------------|
A||----0----------------------------|---------------------------------|
E||---------------------------------|---------------------------------|


e||----3----------------------------|----1----------------------------|
B||-----------1------1-------1------|-----------1------1--------1-----|
G||-------1------1-------1------1---|-------1-------1-------1------1--|
D||---------------------------------|---------------------------------|
A||---------------------------------|---------------------------------|
E||----1----------------------------|----1----------------------------|


e||----0----------------------------|-------------------0-------0-----|
B||-----------1--------1------1-----|----1------1---------------------|
G||-------0-------0-------0------0--|-------0-------0-------0------0--|
D||---------------------------------|---------------------------------|
A||----3----------------------------|---------------------------------|
E||---------------------------------|---------------------------------|


e||----8------7--------7------5-----|----3------1-------1-------0-----|
B||---------------------------------|---------------------------------|
G||---------------------------------|-------2-------2-------2------2--|
D||-------7-------7-------7------7--|---------------------------------|
A||----0----------------------------|---------------------------------|
E||---------------------------------|----1----------------------------|


e||---------------------------------|---------------------------------|
B||----3----------------------------|-----------3-------1-------3-----|
G||-----------2--------2------2-----|----2----------------------------|
D||----0--3-------3-------3------3--|-------3-------3-------3------3--|
A||---------------------------------|---------------------------------|
E||---------------------------------|---------------------------------|


e||----0----------------------------|---------------------------------||
B||-----------0------0-------0------|----0------0------0--------0-----||
G||-------2------2-------2------2---|-------1-------1-------1------1--||
D||---------------------------------|---------------------------------||
A||---------------------------------|---------------------------------||
E||----0----------------------------|----0----------------------------||
Tap to rate this tab
 
# A B C D E F G H I J K L M N O P Q R S T U V W X Y Z