Song name
# A B C D E F G H I J K L M N O P Q R S T U V W X Y Z

Alexandre Tansman - Entree tab

Suite Polonica, Entree -  Alexandre Tansman (1897-1986)
1st version - by Weed, update & reformat of 2nd version
2nd version - by The_S, no measures, simpler arrangement
******************************************************************************

Suite Polonica, Entree -  Alexandre Tansman (1897-1986)

from the original tab by The_S  
updated to MIDI + measures added 12 Oct 2002 - weed@wussu.com

Tuning: DADGBE

4/4

                                       CIII....
0  |   |   |   |     |   |   |   |     |   |   |   |     |   |   |   |
e|-----------------|-------0-1---3---|--5----3-1-0-----|---0-1-----------|
B|-----------------|--3--------------|--6----------3---|-3-----3-5-3-5---|
G|-------------2---|--2--------------|--5------2---4-5-|-----2---5-----5-|
D|-----------------|--3------0-------|-3-------0---0---|-3-------5-------|
A|-----------------|--0----------2---|-3---------------|-0---2---0-------|
E|-----------------|-0---------------|-0-----------5---|-0---------------|

                                       CIII....
4  |   |   |   |     |   |   |   |     |   |   |   |     |   |   |   |
e|-----------------|-------0-1---3---|--5----3-1-0-----|---0-1-----------|
B|--3--------------|--3--------------|--6----------3---|-3-----3-5-3-5---|
G|-------------2---|--2--------------|--5------2---4-5-|-----2---5-----5-|
D|--3--------------|--3------0-------|-3-------0---0---|-3-------5-------|
A|-0-----1-0-------|--0----------2---|-3---------------|-0-------0-------|
D|-0---------5-3-2-|-0---------------|-0-----------5---|-0---------------|

8  |   |   |   |     |   |   |   |     |   |   |   |     |   |   |   |
e|-----------0-1-3-|-5---3---1---3-1-|-0---1-0---------|---0-1-3---------|
B|--3------3-------|-6---3---1---3---|-1---1---3---1---|-3---3---5-------|
G|-------2---------|-5---4---2-------|-0---2---3---0---|-2---3---5---5---|
D|--3--------------|-0---2---0-------|-----0---3---2---|-3-------5---5---|
A|-0---------------|-----------3-1---|-0-----------0---|-----1---0---7---|
D|-0---------------|-----------------|---------5-------|-3---------------|

12 |   |   |   |     |   |   |   |     |   |   |   |     |   |   |   |
e|-----------0-1-3-|-5---3---1---3-1-|-0---1-0---------|---0-1-3---------|
B|--3------3-------|-6---3---1---3---|-1---1---3---1---|-3---3---5-------|
G|--2----2---------|-0---4---2-------|-0---2---3---0---|-2---3---5---5---|
D|--3--------------|-0---2---0-------|-----0---3---2---|-3-------5---5---|
A|-0---------------|-----------3-1---|-0-----------0---|-----1---0---7---|
D|-0---------------|-----------------|---------5-------|-3---------------|

16 |   |   |   |     |   |   |   |     |   |   |   |     |   |   |   |
e|-----------------|-------0-2---3---|--5----3-2-0-----|---0-2---0---0---|
B|--3--------------|--3------3-------|--2----------3-2-|--3----3---3---2-|
G|--2----------2---|-----------------|--2------2---0---|-----------------|
D|--3--------------|--4--------------|-----------------|--4--------------|
A|-0---------------|-0---------------|-0-------2-------|-0---2---4---2---|
D|-0---------------|-0---------------|-0---------------|-0---------------|

20 |   |   |   |     |   |   |   |     |   |   |   |     |   |   |   |
e|-----------------|-------0-2---3---|--5----3-2-0-----|---0-2---0---0---|
B|--3--------------|--3------3-------|-------------3-2-|--3----3-0-3---2-|
G|-------------2---|-----------------|--2------2---4---|---------0-------|
D|-4---------------|-4---------------|--2--------------|-4---------------|
A|-0-----2-0-------|-0-------2-------|-0-------2-------|-0---2---0-------|
D|-0---------5-4-2-|-0---------------|-0-----------5---|-----------------|

24 |   |   |   |     |   |   |   |     |   |   |   |     |   |   |   |
e|-----------------|-5---5---5---5---|-5---5---5---5---|-5---5---5---5---|
B|--3--------------|-----------------|-----------------|-----------------|
G|-------------2---|-0---0---0---0---|-----------------|-0---0---0---0---|
D|-4---------------|-----------------|-4---4---4---4---|-------0---------|
A|-0---------------|-0-2-4---0-2-4---|-0-2-4---0-2-4---|-0-2-4---4-2-4-0-|
D|-0---------------|-0-------0-------|-0-------0-------|-0-------0-------|

28 |   |   |   |     |   |   |   |     |   |   |   |     |   |   |   |
e|--5--------------|-5---5---5---5---|-5---5---5---5---|-5---5---5---5---|
B|--3--------------|-----------------|-----------------|-----------------|
G|--2--------------|-0---0---0---0---|-----------------|-0---0---0---0---|
D|-4---------------|-----------------|-4---4---4---4---|-------0---------|
A|-0-----------0-2-|-0-2-4---0-2-4---|-0-2-4---0-2-4---|-0-2-4---4-2-4-0-|
D|-0-----2-4-5-----|-0-------0-------|-0-------0-------|-0-------0-------|

                                       CIII....
32 |   |   |   |     |   |   |   |     |   |   |   |     |   |   |   |
e|--5--------------|-------0-1---3---|--5----3-1-0-----|---0-1-----------|
B|--3--------------|--3--------------|--6----------3---|-3-----3-5-3-5---|
G|--2----------2---|--2--------------|--5------2---4-5-|-----2---5-----5-|
D|-0-------0-------|--3------0-------|-3-------0---0---|-3-------5-------|
A|-0---0-------3---|--0----------2---|-3---------------|-0---2---0-------|
D|-0---------------|-0---------------|-0-----------5---|-0---------------|

36 |   |   |   |     |   |   |   |     |   |   |   |     |   |   |   |
e|-----------------|-------0-1---3---|--5----3-1-0-----|---0-1-----------|
B|--3--------------|--3--------------|--6----------3---|-3-----3-5-3-5---|
G|-------------2---|--2--------------|--5------2---4-5-|-----2---5-----5-|
D|--3--------------|--3------0-------|-3-------0---0---|-3-------5-------|
A|-0-----1-0-------|--0----------2---|-0---------------|-0---2---0-------|
D|-0---------5-3-2-|-0---------------|-0-----------5---|-0---------------|

40 |   |   |   |     |   |   |   |     |   |   |   |     |   |   |   |
e|-----------0-1-3-|-5---3---1---3-1-|-0---1-0---------|---0-1-3---------|
B|--3------3-------|-6---3---1---3---|-1---1---3---1---|-3---3---5-------|
G|-------2---------|-5---4---2-------|-0---2---3---0---|-2---3---5---5---|
D|--3--------------|-0---2---0-------|-----0---3---2---|-3-------5---5---|
A|-0---------------|-----------3-1---|-0-----------0---|-----1---0---7---|
D|-0---------------|-----------------|---------5-------|-3---------------|

44 |   |   |   |     |   |   |   |     |   |   |   |     |   |   |   |
e|-----------0-1-3-|-5---3---1---3-1-|-0---1-0---------|---0-1-3---------|
B|--3------3-------|-6---3---1---3---|-1---1---3---1---|-3---3---5-------|
G|--2----2---------|-5---4---2-------|-0---2---3---0---|-2---3---5---5---|
D|--3--------------|-0---2---0-------|-----0---3---2---|-3-------5---5---|
A|-0---------------|-----------3-1---|-0-----------0---|-----1---0---7---|
D|-0---------------|-----------------|---------5-------|-3---------------|

48 |   |   |   |
e|----------------||
B|--3-------------||
G|----------------||
D|--4-------------||
A|-0--------------||
D|-0--------------||

******************************************************************************
******************************************************************************

 Alexander Tansman - Suite Polonica - Entree

 Tabbed by The_S  

 Tuning: DADGBE

 4/4

  .       .       .       .       .       .       .       .
|-----------------------0-1---3---5-----3-1-0-------0-1-----------|
|-----------------3---------------6-----------3-1-3-----3-5-3-5---|
|-------------2---2---------------5-------2---4-------2---5-----5-|
|-----------------3-------0---------------0-------3---------------|
|---------------------------------------------------------0-------|
|-----------------0---------------0---------------0---------------|

  .       .       .       .       .       .       .       .
 -----------------------0-1---3---5-----3-1-0-------0-1-----------|
 -3---------------3---------------6-----------3-1-3-----3-5-3-5---|
 -----------------2---------------5-------2---4-------2---5-----5-|
 -3---------------3-------0---------------0-------3---------------|
 -0-----1-0-----------------------------------------------0-------|
 -0---------5-3-2-0---------------0---------------0---------------|

  .       .       .       .       .       .       .       .
 -----------0-1-3-5---3---1---3-1-0---1-0-----------0-1-3--------|
 -3-------3-------6---3---1---3---1---1---3---1---3---3---5------|
 -------2---------------------------------3---0---2-------5---5--|
 -3---------------0---2---0-----------0-----------------------5--|
 -0---------------------------1---0-----------0-------1---0---7--|
 -0---------------------------------------5-------3--------------|

  .       .       .       .       .       .       .       .
 -----------0-1-3-5---3---1---3-1-0---1-0-----------0-1-3--------|
 -3-------3-------6---3---1---3---1---1---3---1---3---3---5------|
 -2-----2---------------------------------3---0---2-------5---5--|
 -3---------------0---2---0-----------0-----------------------5--|
 -----------------------------1---0-----------0-------1---0---7--|
 -0---------------------------------------5-------3--------------|

  .       .       .       .       .       .       .       .
 -----------------------0-2---3---5-----3-2-0-------0-2---0---0---|
 -3---------------3-------3-------------------3-2-3-----3---3---2-|
 -2-----------2-------------------6-------2---0-------------------|
 -3---------------4-------------------------------4---------------|
 -----------------------------------------2-----------2---4---2---|
 -0---------------0---------------0---------------0---------------|

  .       .       .       .       .       .       .       .
 -----------------------0-2---3---5-----3-2-0-------0-2---0---0---|
 -3---------------3-------3-------------------3-2-3-----3-0-3---2-|
 ---------------------------------6-------2---4-----------0-------|
 -4---------------4-------------------------------4---------------|
 -------2-0-------------------------------2-------0---2---0-------|
 -0---------5-4-2-0---------------0-------------------------------|

  .       .       .       .       .       .       .       .
 -----------------5---5---5---5---5---5---5---5---5---5---5---5---|
 -3---------------------------------------------------------------|
 -------------2---0---0---0---0-------------------0---0---0---0---|
 -4-------------------------------4---4---4---4-------------------|
 -----------------0-2-4---0-2-4---0-2-4---0-2-4---0-2-4---4-2-4-0-|
 -0---------------0-------0-------0-------0-------0-------0-------|

  .       .       .       .       .       .       .       .
 -5---------------5---5---5---5---5---5---5---5---5---5---5---5---|
 -3---------------------------------------------------------------|
 -2---------------0---0---0---0-------------------0---0---0---0---|
 -0-------------------------------4---4---4---4-------------------|
 -0-----------0-2-0-2-4---0-2-4---0-2-4---0-2-4---0-2-4---4-2-4-0-|
 -0-----2-4-5-----0-------0-------0-------0-------0-------0-------|

  .       .       .       .       .       .       .       .
 -5---------------------0-1---3---5-----3-1-0-------0-1-----------|
 -3---------------3---------------6-----------3-1-3-----3-5-3-5---|
 -2-----------2---2---------------5-------2---4-------2---5-----5-|
 -0-------0-------3-------0---------------0-------3---------------|
 -0---0-------3-------------------------------------------0-------|
 -0---------------0---------------0---------------0---------------|

  .       .       .       .       .       .       .       .
 -----------------------0-1---3---5-----3-1-0-------0-1-----------|
 -3---------------3---------------6-----------3-1-3-----3-5-3-5---|
 -----------------2---------------5-------2---4-------2---5-----5-|
 -3---------------3-------0---------------0-------3---------------|
 -0-----1-0-----------------------------------------------0-------|
 -0---------5-3-2-0---------------0---------------0---------------|

  .       .       .       .       .       .       .       .
 -----------0-1-3-5---3---1---3-1-0---1-0-----------0-1-3--------|
 -3-------3-------6---3---1---3---1---1---3---1---3---3---5------|
 -------2---------------------------------3---0---2-------5---5--|
 -3---------------0---2---0-----------0-----------------------5--|
 -0---------------------------1---0-----------0-------1---0---7--|
 -0---------------------------------------5-------3--------------|

  .       .       .       .       .       .       .       .
 -----------0-1-3-5---3---1---3-1-0---1-0-----------0-1-3--------|
 -3-------3-------6---3---1---3---1---1---3---1---3---3---5------|
 -2-----2---------------------------------3---0---2-------5---5--|
 -3---------------0---2---0-----------0-----------------------5--|
 -0---------------------------1---0-----------0-------1---0---7--|
 -0---------------------------------------5-------3--------------|

  .       .       .       .       .       .       .       .
 ----------------------------------------------------------------|
 -3--------------------------------------------------------------|
 ----------------------------------------------------------------|
 -4--------------------------------------------------------------|
 -0--------------------------------------------------------------|
 -0--------------------------------------------------------------|

******************************************************************************
******************************************************************************
Tap to rate this tab
# A B C D E F G H I J K L M N O P Q R S T U V W X Y Z