Song name
# A B C D E F G H I J K L M N O P Q R S T U V W X Y Z

Alexey Omelchuk - Enter The Metro tab

-------------------------------------------------------------------------------
                             Enter The Metro - Alexey Omelchuk
-------------------------------------------------------------------------------
Tabbed by: Anonymous

Tuning: Standard (EADGBe)

e|---------------------------------------------------------------------------|
B|---------------------------------------------------------------------------|
G|---------------------------------------------------------------------------|
D|-----2/5-----------------4----------2----------1---------------------------|
A|----------------------3----------2----------0------------------------------|
E|-0-----------------5----------3----------2---------------------------------|

e|---------------------------------------------------------------------------|
B|---------------------------------------------------------------------------|
G|---------------------------------------------------------------------------|
D|-----2/5-------------------------------------------------------------------|
A|----------------------7--5--4---------5--4--2---------4--1-----------------|
E|-0-----------------5---------------3---------------2-----------------------|

e|---------------------------------------------------------------------------|
B|---------------------------------------------------------------------------|
G|---------------------------------------------------------------------------|
D|-----2/5-----------------4----------2----------1---------------------------|
A|----------------------3----------2----------0------------------------------|
E|-0-----------------5----------3----------2---------------------------------|

e|---------------------------------------------------------------------------|
B|---------------------------------------------------------------------------|
G|----4-------5-4-5----------------------------------------------------------|
D|------------------------------4/7---5-4-5-------4-5-2----------------------|
A|---------0------------4---------0------------------------------------------|
E|-3-------------------2------------------0----------------------------------|

e|---------------------------------------------------------------------------|
B|---------------------------------------------------------------------------|
G|---------------------------------------------------------------------------|
D|-----2/5-----------------4----------2----------1---------------------------|
A|----------------------3----------2----------0------------------------------|
E|-0-----------------5----------3----------2---------------------------------|

e|---------------------------------------------------------------------------|
B|---------------------------------------------------------------------------|
G|---------------------------------------------------------------------------|
D|-----2/5-------------------------------------------------------------------|
A|----------------------7--5--4---------5--4--2---------4--1-----------------|
E|-0-----------------5---------------3---------------2-----------------------|

e|---------------------------------------------------------------------------|
B|---------------------------------------------------------------------------|
G|---------------------------------------------------------------------------|
D|-----2/5-----------------4----------2----------1---------------------------|
A|----------------------3----------2----------0------------------------------|
E|-0-----------------5----------3----------2---------------------------------|

e|---------------------------------------------------------------------------|
B|---------------------------------------------------------------------------|
G|----4-------5-4-5----------------------------------------------------------|
D|------------------------------4/7---5-4-5-------4-5-2----------------------|
A|---------0------------4---------0------------------------------------------|
E|-3-------------------2------------------0----------------------------------|

e|---------------------------------------------------------------------------|
B|---------------------------------------------------------------------------|
G|---------------------------------------------------------------------------|
D|-----2/5-----------------4----------2----------1--------------2------------|
A|----------------------3----------2----------0-----------------2------------|
E|-0-----------------5----------3----------2--------------------0------------|

************************************

| /   slide up
| \   slide down
| h   hammer-on
| p   pull-off
| ~   vibrato
| +   harmonic
| x   Mute note
| b   Bend
| pb  Pre-bend
| br  Bend release
| pbr Pre-bend release
| brb Bend release bend

************************************
Tap to rate this tab
 
# A B C D E F G H I J K L M N O P Q R S T U V W X Y Z