Song name
# A B C D E F G H I J K L M N O P Q R S T U V W X Y Z

Alexey Surkov - V Zemluanke tab

E |-------------|-----0----------|----------------|----------------|
B |--------0----|--1-----1-------|--0-------------|----------------|
G |-----2-------|----------------|-----2--1-------|-----------2----|
D |-------------|----------------|----------------|-----2----------|
A |-------------|-----------0----|----------------|--0-----3-------|
E |-------------|----------------|-----------0----|----------------|


----------------|--0--0--0-------|--1-------------|-----------0----|
-----1--3-------|-----------1----|-----1--3-------|-----1--1-------|
--2-------------|-----------0----|-----------5----|-----0--0-------|
----------------|----------------|-----------6----|----------------|
-----------0----|-----------3----|----------------|--3-------------|
----------------|----------------|-----------1----|----------------|


----------------|-----0----------|--1--0----------|----------------|
----------------|--3-----3-------|--------3-------|-----------1----|
-----2--2-------|----------------|----------------|----------------|
----------------|-----------0----|-----------0----|-----2--2-------|
-----------0----|----------------|----------------|--0-------------|
----------------|----------------|----------------|----------------|


----------------|----------------|----------------|----------------|
--1-------------|--3--1--0-------|--3--1--0-------|----------------|
----------------|-----------1----|-----------1----|-----------2----|
-----2--2-------|-----------2----|-----------2----|-----2----------|
-----------0----|----------------|----------------|--0-----3-------|
----------------|-----------0----|-----------0----|----------------|


----------------|----------------|--1--0----------|----------------|
-----0----------|-----0--3-------|--------3--0----|-----------1----|
--2-----2-------|--0-------------|-----------0----|-----0--0-------|
----------------|----------------|----------------|----------------|
-----------0----|----------------|----------------|--3-------------|
----------------|-----------3----|-----------3----|----------------|


----------------|----------------|--5--3--1-------|-----------0----|
--1--0----------|-----0--3-------|-----------0----|----------------|
--------2-------|--0-------------|----------------|-----0--0-------|
----------------|----------------|-----------5----|----------------|
-----------3----|----------------|----------------|--3-------------|
----------------|-----------3----|-----------3----|----------------|


----------------|-----0----------|--1--0----------|----------------|
----------------|--3-----3-------|--------3-------|-----------1----|
-----2--2-------|----------------|----------------|----------------|
----------------|-----------0----|-----------0----|-----2--2-------|
-----------0----|----------------|----------------|--0-------------|
----------------|----------------|----------------|----------------|


----------------|----------------|----------------|----------------|
--1-------------|--3--1--0-------|--3--1--0-------|----------------|
----------------|-----------1----|-----------1----|-----------2----|
-----2--2-------|-----------2----|-----------2----|-----2----------|
-----------0----|----------------|----------------|--0-----3-------|
----------------|-----------0----|-----------0----|----------------|


----------------|-----0----------|--5--7--5-------|----------------|
----------------|--3-----3-------|----------------|-----------5----|
--2--2--2-------|----------------|----------------|-----5--5-------|
----------------|-----------0----|----------------|-----7--7-------|
-----------0----|----------------|-----------5----|--7-------------|
----------------|----------------|----------------|----------------|


----------------|----------------|----------------|----------------|
--5-------------|-----0----------|--1--0----------|----------------|
----------------|--5-------------|----------------|-----------2----|
----------------|--------2--6----|--------2--6----|-----2----------|
-----7--7-------|-----------5----|-----------5----|--0-----3-------|
-----------0----|-----------0----|-----------0----|----------------|


-------------||
-------------||
--2----------||
-------------||
--0----------||
-------------||
Tap to rate this tab
# A B C D E F G H I J K L M N O P Q R S T U V W X Y Z