Song name
# A B C D E F G H I J K L M N O P Q R S T U V W X Y Z

Alexi Murdoch - 12 tab

12
Alexi Murdoch
Album : Time Without consequence
Transcription: Amsteen

It's my first tab, I hope you will satisfaited. All yours suggestions are welcome.
It's a semi instrumental song there's just voice chords.

Intro

E---------------------5----7---5----7--------------| (X2)
B-------------------------------|------7----7------|
G----------------------------------------7----7----|
D--------------------------------------------------|
A--------------------------------------------------|
E--------------------------------------------------|

E----------------------4--5--7--5--4---------------| (x2)
B------------------------------------7---7---------|
G--------------------------------------7---7-------|
D--------------------------------------------------|
A--------------------------------------------------|
E--------------------------------------------------|


(Chorus)

Bm
....................

F#m
...................

A
...................

E
..................

www.error404.bbgraf.com
Tap to rate this tab
# A B C D E F G H I J K L M N O P Q R S T U V W X Y Z