Song name
# A B C D E F G H I J K L M N O P Q R S T U V W X Y Z

Alexi Murdoch - Breathe tab

Whole song is palm muted but you should change the intensity of muting. 
Itīs imposible to tab it, so do it how you feel. Also Iīve found useful 
to play it by "side" of the pick. It have more gently sound i think... 

Intro & Verses:

   PM -x-x-x-x-x-x-x-x-x-x-x-x-x-x-x-x-
e--0----------5p0-0-0-5p0-0-0-0-5p0-5p0----|
B--1---1s3----3---3---3-----3---3---3------|
G--0h2-0-0----0-------0---------0---0------|
D--0h2-2s4---------------------------------|
A--0---0-0---------------------------------|
E------------------------------------------|
 In the quiet of the shadow...

   PM -x-x-x-x-x-x-x-x-x-x-x-
e--0---------------------------------------|
B--1--1----1--1-1-1-1-1-1-1-1--------------|
G--0h22----2--2-0-0h2-2-0h2-2--------------|
D--0h22----3--3-3-3-3-3-3-3-3--------------|
A--0-------3--------3---3---3--------------|
E------------------------------------------|
 In the corner of a room...

 Darkness moves upon you
 Like a cloud across the moon

 You're a-wearing all the silence
 Of a constant that will turn
 Like the windmill left deserted
 Or the sun forever burn

Chorus:
   
   PM -x-x-x-x-x-x-x-x-x-x-x-
e-----------------------------------------|
B--1-1--1-1-1----1-1--1-1-1---------------|
G--2x2--0-0-0----2-2--0-0-0---------------|
D--2x2--0x0-0----3x3--2-2-2---------------|
A--0-0--x-x-x----3-3--3-3-3---------------|
E-------3-3-3-----------------------------|
 So don't forget to breathe

 Don't forget to breathe
 Your whole life is here
 No eleventh hour reprieve
 So don't forget to breathe

   x            x 
 Keep your head above water
   x            x
 But don't forget to breathe

Verse:
And all the suffering that you've witnessed
And the hand prints on the wall
They remind you how it's endless
How endlessly you fall

And the answer that you're seeking
For the question that you found
Drives you further to confusion
As you lose your sense of ground
Tap to rate this tab
# A B C D E F G H I J K L M N O P Q R S T U V W X Y Z