Song name
# A B C D E F G H I J K L M N O P Q R S T U V W X Y Z

Alexi Murdoch - All Of My Days tab

-------------------------------------------------------------------------------
                All of My Days (Recorded version) - Alexi Murdoch
-------------------------------------------------------------------------------
Tabbed by: rgadds
Email: rgadds@yahoo.com

This is my first tab submittal, a song worth the effort that deserves to be
played and heard.  Some minor variations were omitted that can be determined 
by carefully listening to the recording, but otherwise tried to be as exact as 
possible.  

Tuning: DADGBD
  Intro:
  (#1 -7x)           (#2 - repeat 1x) (---------------#3---------------)(#2 x 2)
   h         h       h   h                  h  h                        h
e|--------*------------------------*---------------------------------*-------|
B|--------*------3---------3-----3-*--------3-----------3----------3-*-------|
G|--2---2-*--2-------0-02----2-----*--0-02----2-4---0---------22-----*-------|
D|04--0---*04--0---04----0-----0---*04----0-------2---2----24----0---*-------|
A|--------*------------------------*---------------------------------*-------|
E|---0-0-0*---0-0-0---0---0-0-0-0-0*---0---0-0-0-0-0-0-0-0---0--0-0-0*-------|

  (-----------------------#4-------------------)
   h    h          h         h
e|---------------------------------------------------------------------------|
B|--------3-----------3-----------3-----3-----3------------------------------|
G|--0--02---2-4---0---------22------2-----2----------------------------------|
D|04--4---------02--2---24-0----0-----0-----0--------------------------------|
A|---------------------------------------------------------------------------|
E|---0---0-0-0-0---0-0----0----0-0-0-0-0-0-0-0-0-----------------------------|

Verses:  
  (I have been searching all of my days...)
e|---------------------------------------------------------------------------|
B|---------------------------3-----------------------------------------------|
G|---2-------2-------0---------2---------------------------------------------|
D|-----0-0-----0-0-----0-0-------0-------------------------------------------|
A|5-------4-------2-------0--------------------------------------------------|
E|--0-0-0---0-0-0---0-0-0---0-0-0-0------------------------------------------|

   (All of my days)
                     h   h
e|---------------------------------------------------------------------------|
B|------3-----3-----------3-----3--------------------------------------------|
G|--0-----0---------0-02----2------------------------------------------------|
D|----0-----0---0-04----0-----0----------------------------------------------|
A|---------------------------------------------------------------------------|
E|55-5-5-5-5-5-500---0---0-0-0-0-0-------------------------------------------|

  (As the days keep turning into night)
                         h   h             h   h
e|---------------------------------------------------------------------------|
B|--------------------------3-----3---------3-----3--------------------------|
G|---2---2---2---2----0-02----2-------0-02----2------------------------------|
D|-0---0---0---0--0-04----0-----0---04----0-----0----------------------------|
A|---------------------------------------------------------------------------|
E|5-5-2-2-5-5-2-2-00---0---0-0-0-0-0---0---0-0-0-0-0-------------------------|



Solo: Play #2 twice followed by #3 - repeat, then:
   h   h    h                  h    h    h 
e|---------------------------------------------------------------------------|
B|--------------3-----3-----3----------------3-----3-----3-----3-----3-------|
G|---0---0--------2-----2--------0----0--------2-----2-----2-----2-----------|
D|--0---0--02-0-----0-----0-----0----0--02-0-----0-----0-----0-----0---------|
A|02--24--4-------------------02---24--4-------------------------------------|
E|-----------0-0-0-0-0-0-0-0-0------------0-0-0-0-0-0-0-0-0-0-0-0-0-0-0------|

Ending:  Repeat “As the days keep turning into night”, then
           “Even breathing feels alright
e|---------------------------------------------------------------------------|
B|-------------------3-----3-------------------------------------------------|
G|---0-----0-----------2-----2-----------------------------------------------|
D|-----4-----4---0-0-----0-----0---------------------------------------------|
A|-2-----2-----2-------------------------------------------------------------|
E|2-2-2-2-2-2-2-2-0-0-0-0-0-0-0-0--------------------------------------------|



************************************

| /   slide up
| \   slide down
| h   hammer-on
| p   pull-off
| ~   vibrato
| +   harmonic
| x   Mute note
| b   Bend
| pb  Pre-bend
| br  Bend release
| pbr Pre-bend release
| brb Bend release bend

************************************
Tap to rate this tab
# A B C D E F G H I J K L M N O P Q R S T U V W X Y Z