Song name
# A B C D E F G H I J K L M N O P Q R S T U V W X Y Z

Alexis Blue - Passive Aggressive tab

(Over Dm, F)

--------------------------------------------------------|
--------------------------------------------------------|
-10h12p10-9h10p9-7h9p9-5h7p5-2h5p2--0-0------0--2-------|
---------------------------------3--2-2---2-------------|
--------------------------------------------------------|
--------------------------------------------------------|

(C, Gm)

--------------------------------------------------------|
--------------------------------------------------------|
-3h5p3-2h3p2-0h2p0---0---0------------------------------|
-------------------3---3---3-0---0---0------------------|
-------------------------------3---3--------------------|
--------------------------------------------------------|

(Dm, F)

----------------------------------5-8-5---5-------------|
-10h11p10-8h10p8-6h8p6-5h6p5h6-8--6-6-6-6-6-6-----------|
----------------------------------5-5-5-5---5-----------|
--------------------------------------------------------|
--------------------------------------------------------|
--------------------------------------------------------|

(C, Gm)

--------------------------------------------------------|
-8h10p8h10p8h10p8h10p8----------6-----------------------|
-----------------------10-7-5-7---7---7-7-7-5-----------|
--------------------------------------------------------|
--------------------------------------------------------|
--------------------------------------------------------|

(Dm, F)

---------------------------------------------------------------|
-------6---6-8-8^-6--------------------------------------------|
-7-5-7---7----------7--7-7-7--5h7p5----------------------------|
------------------------------------7-6-5-3--------------3---3-|
--------------------------------------------5-3-5--5-3-5---5---|
---------------------------------------------------------------|

(C, Gm)

----------------------------------------------------------------------------|
----------------------------------------------------------------------------|
----------------------------------------------------------------------------|
---3---5-3---3-/7---7---10-7---7------2---2---2---2----10---10---10---10----|
-5---5-----5---/8-8---8------8---8--3---3---3---3---/8----8----8----8-------|
----------------------------------------------------------------------------|
Tap to rate this tab
# A B C D E F G H I J K L M N O P Q R S T U V W X Y Z