Song name
# A B C D E F G H I J K L M N O P Q R S T U V W X Y Z

Alexisonfire - Young Cardinals tab

-------------------------------------------------------------------------------
			     Young Cardinals - Alexisonfire
-------------------------------------------------------------------------------
Tabbed by: Jenky but i transcribed it from CycloneSis video which can be found here: 
If CycloneSi wishes me to take this down then i will do so immediately. once again:

*FULL CREDIT TO CYCLONESI*

Email:jenky1901

Tuning:Half Step Down

Intro:
eb|-----------|
Ab|-----------|
F#|---6-------|
C#|---6--x8---|
G#|---4-------|
Eb|---4-------|

Verse:
*let ring*
e|---------------------------------------|
B|---------------------------------------|
G|---6--------2-2------------------------|
D|---6--------2-2--7--------9-9--x4------|
A|---4--------0-0--7--------9-9----------|
E|---4--------0-0--5--------7-7----------|

Chorus
eb|-----------------------|
Ab|-----------------------|
F#|---6-------------------|
C#|---6--x16--7--x16------|
G#|---4-------7-----------|
Eb|---4-------5-----------|

eb|-----------------------------|
Ab|-----------------------------|
F#|-----------------------------|
C#|-----------------------------|
G#|-----------------------------|
Eb|---0-2-0-2/4\2-0-2-----------|

Middle-8
eb|------------------------|
Ab|------------------------|
F#|---------------------2--|
C#|------6-----5-----4--0--|
G#|---4-----3-----2-----0--|
Eb|------------------------|

Right now im not too sure of the middle-8 but if you can tab it out then please share 
us. The rest of the song pretty much follows the above pattern.

| /  slide up
| \  slide down
| h  hammer-on
| p  pull-off
| ~  vibrato
| +  harmonic
| x  Mute note
===============================================================================
Tap to rate this tab
 
# A B C D E F G H I J K L M N O P Q R S T U V W X Y Z