Song name
# A B C D E F G H I J K L M N O P Q R S T U V W X Y Z

Alexisonfire - Boiled Frogs Acoustic tab

-------------------------------------------------------------------------------
			     Boiled Frogs - Alexisonfire or City and Colour
-------------------------------------------------------------------------------
Tabbed by: LightningLogan
Email: lightning.logan@hotmail.com

I'm just givin you guys the chords, the timing is harder to tab out so just listen for 
hope you enjoy. Now if only this version were available on limewire lol. Tell me where I 
get it other than iTunes


Tuning: Drop D; DADGBe

Intro
e|---x---|
B|---x---|
G|---7---|
D|---0---|
A|---9---|
D|---9---|

Verse 1
e|---x---x---x---|
B|---x---x---5---|
G|---7---4---7---|
D|---0---4---0---|
A|---9---5---0---|
D|---9---5---x---|
Old man sits at his desk...

Pre-Chorus 1
e|---x---x---x---x---x---|---x---|
B|---x---5---8---7---5---|---x---|
G|---7---7---7---6---4---|---6---|(play after 2nd and 4th time)
D|---0---0---5---4---2---|---0---|
A|---9---0---5---4---2---|---7---|
D|---9---x---5---4---2---|---7---|
I'm always wishing...

Chorus 1
e|---x---------x---x---x---|
B|---x---------x---x---x---|
G|---4--pause--7---4---7---|
D|---4---------0---4---0---|
A|---5---------9---5---9---|
D|---5---------9---5---9---|
Wait up, I'm not sleeping...

Verse 2
e|---x---x---x---|
B|---x---x---5---|
G|---7---4---7---|
D|---0---4---0---|
A|---9---5---0---|
D|---9---5---x---|
Poor little tin man...

Pre-Chorus 2
e|---x---x---x---x---x---|---x---|
B|---x---5---8---7---5---|---x---|
G|---7---7---7---6---4---|---6---|(play after 2nd and 4th time)
D|---0---0---5---4---2---|---0---|
A|---9---0---5---4---2---|---7---|
D|---9---x---5---4---2---|---7---|
My youth is slipping...

Chorus 2
e|---x---------x---x---x---|
B|---x---------x---x---x---|
G|---4--pause--7---4---7---|
D|---4---------0---4---0---|
A|---5---------9---5---9---|
D|---5---------9---5---9---|
Wait up, I'm not sleeping...

Outro
e|---x---x---x---|
B|---x---x---x---|
G|---4---6---7---|
D|---4---0---0---|
A|---5---7---9---|
D|---5---7---9---|
Wait up for me...


Order

Intro
Verse 1
Pre-Chorus 1
Chorus 1
Verse 2
Pre-Chorus 2
Chorus 2
Outro

************************************

| /   slide up
| \   slide down
| h   hammer-on
| p   pull-off
| ~   vibrato
| +   harmonic
| x   Mute note
| b   Bend
| pb  Pre-bend
| br  Bend release
| pbr Pre-bend release
| brb Bend release bend

************************************
Tap to rate this tab
# A B C D E F G H I J K L M N O P Q R S T U V W X Y Z