Song name
# A B C D E F G H I J K L M N O P Q R S T U V W X Y Z

Alexisonfire - Rough Hands tab

                             Rough Hands (intro)                                


                                                                    Alexisonfire
Guitar 1

Tempo = 110
       E   E   E   E   E   E   E   E      E   E   E   E   E   E   E   E    
D#||-----------------------------------|----------------------------------|
A#||-----------------------------------|----------------------------------|
F#||*----------------------------------|----------------------------------|
C#||*----------------------------------|----------------------------------|
G#||-----------------------------------|----------------------------------|
D#||---0--(0)--0--(0)--0--(0)--0--(0)--|--3--(3)--3--(3)--3--(3)--3--(3)--|
 
 
  E   E   E   E   E   E   E   E      E   E   E   E   E   E   E   E       
----------------------------------|------------------------------------||
----------------------------------|------------------------------------||
----------------------------------|----------------------------------*-||
----------------------------------|----------------------------------*-||
--3--(3)--3--(3)--3--(3)--3--(3)--|--2--(2)--2--(2)--2--(2)--2--(2)----||
----------------------------------|------------------------------------||
 
 
   E   E   E   E   E   E   E   E      E   E   E   E   E   E   E   E    
-----------------------------------|----------------------------------|
-----------------------------------|----------------------------------|
*----------------------------------|----------------------------------|
*----------------------------------|----------------------------------|
-----------------------------------|----------------------------------|
---0--(0)--0--(0)--0--(0)--0--(0)--|--3--(3)--3--(3)--3--(3)--3--(3)--|
 
 
  E   E   E   E   E   E   E   E      E   E   E   E   E   E   E   E       
----------------------------------|------------------------------------||
----------------------------------|------------------------------------||
----------------------------------|----------------------------------*-||
----------------------------------|----------------------------------*-||
--3--(3)--3--(3)--3--(3)--3--(3)--|--2--(2)--2--(2)--2--(2)--2--(2)----||
----------------------------------|------------------------------------||
 
 Tempo = 120
   E   E   E   E   E   E   E   E      E   E   E   E   E   E   E   E    
-----------------------------------|----------------------------------|
-----------------------------------|----------------------------------|
*----------------------------------|----------------------------------|
*----------------------------------|----------------------------------|
-----------------------------------|----------------------------------|
---0--(0)--0--(0)--0--(0)--0--(0)--|--3--(3)--3--(3)--3--(3)--3--(3)--|
 
 					
  E   E   E   E   E   E   E   E      E   E   E   E   E   E   E   E       
----------------------------------|------------------------------------||
----------------------------------|------------------------------------||
----------------------------------|----------------------------------*-||
----------------------------------|----------------------------------*-||
--3--(3)--3--(3)--3--(3)--3--(3)--|--2--(2)--2--(2)--2--(2)--2--(2)----||
----------------------------------|------------------------------------||
 
Alt. Ending
  E   E   E   E   E   E   E   E     
----------------------------------||
----------------------------------||
----------------------------------||
----------------------------------||
--2--(2)--2--(2)--2--(2)--2--(2)--||
----------------------------------||

Guitar 2
Tempo = 110                                H        E  Q    E   
D#||--------|-------|-------|---------||-----------------------|
A#||--------|-------|-------|---------||-----------------------|
F#||*-------|-------|-------|-------*-||*----------------------|
C#||*-------|-------|-------|-------*-||*--5--------L--4----0--|
G#||--------|-------|-------|---------||-----------------------|
D#||--------|-------|-------|---------||-----------------------|
 
 
  H        E  Q    E     H        E  Q    E     H        E  Q    E      
----------------------|----------------------|------------------------||
----------------------|----------------------|--0--------L------------||
--2--------L----------|----------------------|--------------2-------*-||
--------------2----0--|--5--------L--4----0--|-------------------0--*-||
----------------------|----------------------|------------------------||
----------------------|----------------------|------------------------||
 
 Tempo = 120
   H        E  Q    E     H        E  Q    E     H        E  Q    E   
-----------------------|----------------------|----------------------|
-----------------------|----------------------|----------------------|
*----------------------|--2--------L----------|----------------------|
*--5--------L--4----0--|--------------2----0--|--5--------L--4----0--|
-----------------------|----------------------|----------------------|
-----------------------|----------------------|----------------------|
 
                          Alt. Ending
  H        E  Q    E        E  H        Q.       
------------------------||---------------------||
--0--------L------------||---------------------||
--------------2-------*-||---------------------||
-------------------0--*-||--0--2--------L------||
------------------------||---------------------||
------------------------||---------------------||
 
 
 
Duration Legend
---------------
W - whole
H - half
Q - quarter
E - 8th
S - 16th
T - 32nd
X - 64th
. - note dotted
|-n-|  - n-tuplets
 
 
Tablature Legend
----------------
L - tied note
x - dead note
g - grace note
(n) - ghost note
> - accentuded note
NH - natural harmonic
AH - artificial harmonic
TH - tapped harmonic
SH - semi harmonic
PH - pitch harmonic
h - hammer on
p - pull off
b - bend
br - bendRelease
pb - preBend
pbr - preBendRelease
brb - bendReleaseBend
\n/ - tremolo bar dip
\n - tremolo bar dive
-/n - tremolo bar Release up
/n\ - tremolo bar inverted dip
/n - tremolo bar return
-\n - tremolo bar Release down
S - shift slide
s - legato slide
/ -  slide into from below or out of upwards
\ -  slide into from above or out of downwards
~ - vibrato
W - wide vibrato
tr - tril'
TP - tremolo picking
T - tapping
S - slap
P - pop
< - fade in
^ - brush up
v - brush down
Tap to rate this tab
# A B C D E F G H I J K L M N O P Q R S T U V W X Y Z