Song name
# A B C D E F G H I J K L M N O P Q R S T U V W X Y Z

Alexisonfire - Old Crows tab

Old Crows, Young Cardinals (2009)

Standard tuning E A D G H E

bass (intro + verse)

g --------------------------------------------------------------|
d ----4-----4---4-----4-----4---4-------------------------------|
a ------------------------------------4-----4---4-----2-----2---|
e 4-4---4-4---4---4-4---4-4---4---5-5---5-5---5---2-2---2-2---2-|

guitar (verse)

e ------7-------11-----7-------7--9-7--------------|
h 7-9-----9--------9-----9---9--------9------------|
g ---------------------------------------6-8---9-8-|
d -------------------------------------------------| x4
a -------------------------------------------------|
e -------------------------------------------------|

e 16-14-------------------------------|
h ------16-14-12----12-14-16-14-12----|
g ---------------13----------------13-|
d ------------------------------------| x4
a ------------------------------------|
e ------------------------------------|


e ----------------|
h ----------------|
g ----6-----------|
d 6---6---4---9-7-|
a 6---4---4---9-7-|
e 4-------2---7-5-|


e ----------------------------------------------------------------|
h ----------------------------------------------------------------|
g ----------------------------------------------------------------|
d ----------------------------------------------------------------|
a ----------------------------------------------------------------|
e 4-4-4-4-4-4-4-4-4-4-4-4-4-4-4-4-4-4-4-4-4-4-4-4-4-2-2-5-5-5-5-5-|

the band uses tuning Db Ab Db Gb Hb Eb -> the only difference to this is that
the second chord in chorus is played one octave lower...
Tap to rate this tab
# A B C D E F G H I J K L M N O P Q R S T U V W X Y Z