Song name
# A B C D E F G H I J K L M N O P Q R S T U V W X Y Z

Alexisonfire - Keep It On Wax tab

Hope you like the tab!
Email me at frederik.1996@hotmail.com if you notice any errors.

Intro (Rhythm)
e|---------------------------------------------|
B|---------------------------------------------|
G|--10-10-10-11-10-10-10-11-10-10-10-11-10-----|
D|--8--8--8--8--8--8--8--8--8--8--8--8--8------|
A|--8--8--8--8--8--8--8--8--8--8--8--8--8------|
E|--8--8--8--8--8--8--8--8--8--8--8--8--8------|

Intro Continued (Lead)                                   (x2)
e|----------------------------------------------------------|
B|----------------------------------------------------------|
G|----------------------------------------------------------|
D|----------------------------------------------------------|
A|-------6-8/9-8-------6-11-11-9-8-9-8----11-11-9-8-9-8-----|
E|--8-11----------8-11-----------------11---------------11--|

Verse                                    (x2)
e|------------------------------------------|
B|------------------------------------------|
G|--------------------------------10--------|
D|--8---8-8--8-8--8-8-8-8-8--8----8--(x32)--|
A|--8---8-8--8-8--8-8-9-9-10-10---8---------|
E|--8---8-8--8-8--8-8-8-8-8--8----8---------|

Pre-Chorus                                      (x2)
e|-------------------------------------------------|
B|--------7-8\7-------9-9-7\6-7\6---9-9-7\6-7\6----|
G|----6-8---------6-8-------------6-------------6--|
D|--8-----------8----------------------------------|
A|-------------------------------------------------|
E|-------------------------------------------------|

- bass thing -

Chorus                                      (x2)
e|---------------------------------------------|
B|---------------------------------------------|
G|---------------------------------------------|
D|--8--(x32)--1-1-1-1-1-1-1-1-4-4-4-4-6-6-6-6--|
A|--8---------1-1-1-1-1-1-1-1-4-4-4-4-6-6-6-6--|
E|--8---------1-1-1-1-1-1-1-1-4-4-4-4-6-6-6-6--|

   KEEP IT  ON WAX!
e|------------------|
B|------------------|
G|--10--10--10--10--|
D|--8---8---8---8---|
A|--8---8---8---8---|
E|--8---8---8---8---|

Lead again                                               (x2)
e|----------------------------------------------------------|
B|----------------------------------------------------------|
G|----------------------------------------------------------|
D|----------------------------------------------------------|
A|-------6-8/9-8-------6-11-11-9-8-9-8----11-11-9-8-9-8-----|
E|--8-11----------8-11-----------------11---------------11--|

Bridge                                       (x2)
e|----------------------------------------------|
B|----6h7-6-----6h7-6-----6h7-6------6h7-6------|
G|----------6---------6---------6----------6----|
D|--8---------8---------8---------8----------8--|
A|--8-------------------------------------------|
E|--8-------------------------------------------|
Continues                                   (x2)
e|---------------------------------------------|
B|---------------------------------------------|
G|--8-8-8-8-8-8-8-8---11-11-11-11-10-10-10-10--|
D|--x-x-x-x-x-x-x-x---x--x--x--x--x--x--x--x---|
A|--6-6-6-6-6-6-6-6---9--9--9--9--8--8--8--8---|
E|---------------------------------------------|

I! I GUESS! THE ONLY THING CHEAP TO YOU IS YOUR
FRIENDS!                                         (x4)
e|--------------------------------------------------|
B|--------------------------------------------------|
G|--------------------------------------------------|
D|--8------8--8-------8---8---8--8---8--8---8----8--|
A|--8------8--8-------8---8---8--8---8--8---8----8--|
E|--8------8--8-------8---8---8--8---8--8---8----8--|

George's Bridge
e|---------------------------------------------------|
B|---------------------------------------------------|
G|--10-------8--------10------11------6------5-------|
D|--8--(x16)-6-(x16)--8--(x8)-9--(x8)-4-(x8)-3-(x8)--|
A|--8--------6--------8-------9-------4------3-------|
E|--8--------6--------8-------9-------4------3-------|

Chorus                                      (x2)
e|---------------------------------------------|
B|---------------------------------------------|
G|---------------------------------------------|
D|--8--(x32)--1-1-1-1-1-1-1-1-4-4-4-4-6-6-6-6--|
A|--8---------1-1-1-1-1-1-1-1-4-4-4-4-6-6-6-6--|
E|--8---------1-1-1-1-1-1-1-1-4-4-4-4-6-6-6-6--|

Outro                                       (x2)
e|---------------------------------------------|
B|---------------------------------------------|
G|---------------------------------------------|
D|--8--(x32)--1-1-1-1-1-1-1-1-4-4-4-4-6-6-6-6--|
A|--8---------1-1-1-1-1-1-1-1-4-4-4-4-6-6-6-6--|
E|--8---------1-1-1-1-1-1-1-1-4-4-4-4-6-6-6-6--|

End on
e|-----|
B|-----|
G|-----|
D|--8--|
A|--8--|
E|--8--|
Tap to rate this tab
 
# A B C D E F G H I J K L M N O P Q R S T U V W X Y Z