Song name
# A B C D E F G H I J K L M N O P Q R S T U V W X Y Z

Alexisonfire - Sons Of Priviledge tab

Sons of Priviledge
Alexisonfire

Tabbed by: T Kallas

tuning: Drop C#


intro              Close but not perfect
e|--0-----------|--0-0-0-0----7---10---7---7-0-0-0--0--0---0-0-0--|
B|--------------|------8-8-------------------7-7-7--10-10--8-8-8--|
G|--9^----------|--9-9-9-9--9---9--------9---9-9-9--9--9---9-9-9--|
D|--------------|-------------------------------------------------|
A|--------------|-------------------------------------------------|
E|--------------|-------------------------------------------------|

prechorus and intro
e|-------------------|
B|-------------------|
G|-------------------|
D|--7---10---5---8---|
A|--7---10---5---8---|
E|--7---10---5---8---|

verse
e|-------------------------------------------------------------------|
B|-------------------------------------------------------------------|
G|-------------------------------------------------------------------|
D|-------------------------------------------------------------------|
A|-0-0-3-0---0-3-0---0-3-0---0-3-0---0-3-0---0-3-0---0---0-3-0---0---|
E|-----------------------------------------------------5-------5-----|

end of 2nd verse
e|---------------------------------|------|
B|---------------------------------|------|
G|----------2----------------------|--5---|
D|----------2----------------------|--5---|
A|--0-3-0-3-0-------0---0-3-0---0--|--3---|
E|--------------------5-------5----|------|

chorus gtr 1
e|--------------------------|
B|--------------------------|
G|--------------------------|
D|--2----9----10----5----9--|
A|--2----9----10----5----9--|
E|--2----9----10----5----9--|

chorus gtr 2  Close but not perfect
                     2x
e|--------0-0-----3--3-2-|--0-7-7-10---7----------------------------------|
B|--0h3-3-------3--------|-----------------------3-3-3-3--3-5-5-5-5-------|
G|-----------------------|----------------2--4-4--------------------4-2-2-|
D|-----------------------|------------------------------------------------|
A|-----------------------|------------------------------------------------|
E|-----------------------|------------------------------------------------|

Lost though you are free...
e|-------------------------------|
B|--0-0-0-0-0-0-0-0-0--0-0-0-0---|
G|--4-4-4-4-4-4-7-7-7-/9-9-9-9---|
D|-------------------------------|
A|-------------------------------|
E|-------------------------------|
Tap to rate this tab
# A B C D E F G H I J K L M N O P Q R S T U V W X Y Z