Song name
# A B C D E F G H I J K L M N O P Q R S T U V W X Y Z

Alexisonfire - Midnight Regulations tab

Midnight Regulations
Alexisonfire

Tabbed by: T Kallas

Tuning:Drop C#

Intro gtr 1
e|---------------|-------------------------|
B|---------------|-------------------------|
G|--4------------|--4----------2-----------|
D|--2------------|--2--------5-0-----------|
A|--2------------|--2--------5-0-----------|
E|--2------------|--2--------5-0-----------|

intro gtr 2   Not perfect, but something like this
e|--0---0-0-0--0---0--0-0----0-0-0-0-----0--0--0----10-10-10--|
B|-------------8---7--8-7--------8-7-----8--8--8----8--8--8---|
G|--7/9-9-9-9--9---9--9-9----7-7-7-7-----11-11-11---11-11-11--|
D|------------------------------------------------------------|
A|------------------------------------------------------------|
E|------------------------------------------------------------|

verse
e|--------------------------------|
B|--------------------------------|
G|--4-----------2-----------------|
D|--2---------5-0---------7-7-5-5-|
A|--2---------5-0---------7-7-5-5-|
E|--2---------5-0---------7-7-5-5-|

chorus
e|---------------|---------------------|
B|---------------|---------------------|
G|--4------2-----|---------------------|
D|--2------0-----|---------------------|
A|--2------0-----|---------------------|
E|--2------0-----|--/7-5-2-5-/9-7-5-0--|

solo during last chorus
e|----------------------------|-------------------------------|
B|----------------------------|-------------------------------|
G|--7-------------------------|7-----------------7---7/9~-----|
D|------5------7-5-7/9-7-5----|----5-----7-5-7/9---9----------|
A|--------7----------------7~-|------7------------------------|
E|----------------------------|-------------------------------|

at end of song
              4x                4x
e|----------------|----------------|-------------|
b|----------------|----------------|-------------|
G|--12-12-12-\9---|--14-14-14-\9---|--9-9-9-9----|
D|----------------|----------------|-------------|
A|--10-10-10-\7---|--12-12-12-\7---|--7-7-7-7----|
E|----------------|----------------|-------------|




************************************

| /   slide up
| \   slide down
| h   hammer-on
| p   pull-off
| ~   vibrato
| +   harmonic
| x   Mute note
| b   Bend
| pb  Pre-bend
| br  Bend release
| pbr Pre-bend release
| brb Bend release bend

************************************
Tap to rate this tab
# A B C D E F G H I J K L M N O P Q R S T U V W X Y Z