Song name
# A B C D E F G H I J K L M N O P Q R S T U V W X Y Z

Alexisonfire - Dogs Blood tab

-------------------------------------------------------------------------------
			     Dogs Blood - Alexisonfire
-------------------------------------------------------------------------------
Tabbed by: JjjDdd
Email: jxsxphdxxgxn@gmail.com

Tuning: drop C#

	Intro riff				[not sure about this bit]
D#|-------------------------------------------------------------------|
A#|-------------------------------------------------------------------|
F#|-------------------------------------------------------------------|
C#|-------------------------------------------------------------------| x4
G#|-5-5-------------5--------------5-5--------------------------------|
C#|-----7-8--3--0~-----7-8--3--0~------7-8--3--0~----/5-5-0-1-0-1-0---|

D#|-------------------------------------------------------------------|
A#|-------------------------------------------------------------------|
F#|-------------------------------------------------------------------|
C#|-7-7----------0~---7----------0~---7-7----------0~-----------------| x2
G#|-5-5--7-8--3--0~---5--7-8--3--0~---5-5--7-8--3--0~--/5-5-0-1-0-1-0-|
C#|------7-8--3--0~------7-8--3--0~--------7-8--3--0~--/5-5-0-1-0-1-0-|


	[Verse]
D#|-------------------------------------------------------------------|
A#|-------------------------------------------------------------------|
F#|-------------------------------------------------------------------|
C#|---7~~~~~----------------------------------------------------------|
G#|---5~~~~~----------------------------------------------------------|
C#|---0~~~~~----------------------------------------------------------|


	[Chorus]
D#|-------------------------------------------------------------------|
A#|-------------------------------------------------------------------|
F#|-------------------------------------------------------------------|
C#|-------------------------------------------------------------------| x3
G#|-8-8-8-8-8-8-8-8--3-3-3--5-5--1--0~---------------0~---------------|
C#|-8-8-8-8-8-8-8-8--3-3-3--5-5--1--0~---------------0~---------------|

		D#|-----------------------------|
		A#|-----------------------------|
 [fourth time]  F#|-----------------------------|
		C#|-----------------------------| 
		G#|--8-8-8-8-8-8-8-8--3-3-3--5--|
		C#|--8-8-8-8-8-8-8-8--3-3-3--5--|

D#|-------------------------------------------------------------------|
A#|-------------------------------------------------------------------|
F#|-------------------------------------------------------------------|
C#|-7-7----------0~---7----------0~---7-7----------0~---------5--5--5-| x2
G#|-5-5--7-8--3--0~---5--7-8--3--0~---5-5--7-8--3--0~--/5-5-5-3--3--3-|
C#|------7-8--3--0~------7-8--3--0~--------7-8--3--0~--/5-5-5---------|


	[Verse]
D#|-------------------------------------------------------------------|
A#|-------------------------------------------------------------------|
F#|-------------------------------------------------------------------|
C#|---7~~~~~----------------------------------------------------------|
G#|---5~~~~~----------------------------------------------------------|
C#|---0~~~~~----------------------------------------------------------|


	[Chorus]
D#|-------------------------------------------------------------------|
A#|-------------------------------------------------------------------|
F#|-------------------------------------------------------------------|
C#|-------------------------------------------------------------------| x3
G#|-8-8-8-8-8-8-8-8--3-3-3--5-5--1-1--0~-------------0~---------------|
C#|-8-8-8-8-8-8-8-8--3-3-3--5-5--1-1--0~-------------0~---------------|

		D#|-----------------------------|
		A#|-----------------------------|
 [fourth time]  F#|-----------------------------|
		C#|-----------------------------| 
		G#|--8-8-8-8-8-8-8-8--3-3-3--5--|
		C#|--8-8-8-8-8-8-8-8--3-3-3--5--|

D#|-------------------------------|
A#|-------------------------------|
F#|-------------------------------|
C#|--7~~~~------------------------|
G#|--5~~~~------------------------|
C#|--0~~~~------------------------|

D#|------------------------------------------------------------------|
A#|------------------------------------------------------------------|
F#|-----------------------(7)----------------------------------------|
C#|-----0-----0-------0------0--------0-------0--------0-------5p0---| x5
G#|--/5---5-5---5--/8---8------8--/12---12-12---12-\-5---5-5h7-------|
C#|------------------------------------------------------------------|

D#|----------------------------------------------------|
A#|----------------------------------------------------|
F#|---7-7--5-5--2-2--3-3--2-2--------------------------|
C#|---------------------------3---3--3--2-2--5-5-------| x4
G#|-0--------------------------------------------3/5---|
C#|-0--------------------------------------------------|

D#|---------------------------------------------------|
A#|---------------------------------------------------|
F#|---------------------------------------------------|
C#|---------------------------------------------------| x4
G#|--5---/-----8-----/------3------/------5-----------|
C#|---------------------------------------------------|

D#|--------------------------------------------------------|
A#|--------------------------------------------------------|
F#|--------------------------------------------------------|
C#|--7-7-7--77--7--7-77-7--3-3-3--33-3-/--10--1010-10-10---| x12
G#|--5-5-5--55--5--5-55-5--3-3-3--33-3-/--10--1010-10-10---|
C#|--0-0-0--00--0--0-00-0--3-3-3--33-3-/--10--1010-10-10---|

D#|--------------------------------------------------------|
A#|--------------------------------------------------------|
F#|--------------------------------------------------------|
C#|--7~----------------------------------------------------|
G#|--5~----------------------------------------------------|
C#|--0~----------------------------------------------------|

************************************
| /   slide up
| \   slide down
| h   hammer-on
| p   pull-off
| ~   vibrato
************************************
Tap to rate this tab
# A B C D E F G H I J K L M N O P Q R S T U V W X Y Z